0
SECTION
2
HEADER
9
$INSUNITS
70
1
0
ENDSEC
0
SECTION
2
TABLES
0
TABLE
2
LTYPE
0
LTYPE
72
65
70
64
2
CONTINUOUS
3
______
73
0
40
0
0
ENDTAB
0
TABLE
2
LAYER
0
ENDTAB
0
ENDSEC
0
SECTION
2
ENTITIES
0
LINE
8
front_outsideCutPath
10
0
20
1.125
11
0
21
0.865
0
LINE
8
front_outsideCutPath
10
0
20
0.865
11
0.118
21
0.865
0
LINE
8
front_outsideCutPath
10
0.118
20
0.865
11
0.118
21
0.385
0
LINE
8
front_outsideCutPath
10
0.118
20
0.385
11
0
21
0.385
0
LINE
8
front_outsideCutPath
10
0
20
0.385
11
0
21
0.125
0
LINE
8
front_outsideCutPath
10
0
20
0.125
11
0.855
21
0.125
0
LINE
8
front_outsideCutPath
10
0.855
20
0.125
11
0.855
21
0.243
0
LINE
8
front_outsideCutPath
10
0.855
20
0.243
11
1.335
21
0.243
0
LINE
8
front_outsideCutPath
10
1.335
20
0.243
11
1.335
21
0.125
0
LINE
8
front_outsideCutPath
10
1.335
20
0.125
11
1.815
21
0.125
0
LINE
8
front_outsideCutPath
10
1.815
20
0.125
11
1.815
21
0.243
0
LINE
8
front_outsideCutPath
10
1.815
20
0.243
11
2.295
21
0.243
0
LINE
8
front_outsideCutPath
10
2.295
20
0.243
11
2.295
21
0.125
0
LINE
8
front_outsideCutPath
10
2.295
20
0.125
11
2.775
21
0.125
0
LINE
8
front_outsideCutPath
10
2.775
20
0.125
11
2.775
21
0.243
0
LINE
8
front_outsideCutPath
10
2.775
20
0.243
11
3.255
21
0.243
0
LINE
8
front_outsideCutPath
10
3.255
20
0.243
11
3.255
21
0.125
0
LINE
8
front_outsideCutPath
10
3.255
20
0.125
11
3.735
21
0.125
0
LINE
8
front_outsideCutPath
10
3.735
20
0.125
11
3.735
21
0.243
0
LINE
8
front_outsideCutPath
10
3.735
20
0.243
11
4.215
21
0.243
0
LINE
8
front_outsideCutPath
10
4.215
20
0.243
11
4.215
21
0.125
0
LINE
8
front_outsideCutPath
10
4.215
20
0.125
11
4.695
21
0.125
0
LINE
8
front_outsideCutPath
10
4.695
20
0.125
11
4.695
21
0.243
0
LINE
8
front_outsideCutPath
10
4.695
20
0.243
11
5.175
21
0.243
0
LINE
8
front_outsideCutPath
10
5.175
20
0.243
11
5.175
21
0.125
0
LINE
8
front_outsideCutPath
10
5.175
20
0.125
11
5.655
21
0.125
0
LINE
8
front_outsideCutPath
10
5.655
20
0.125
11
5.655
21
0.243
0
LINE
8
front_outsideCutPath
10
5.655
20
0.243
11
6.135
21
0.243
0
LINE
8
front_outsideCutPath
10
6.135
20
0.243
11
6.135
21
0.125
0
LINE
8
front_outsideCutPath
10
6.135
20
0.125
11
6.615
21
0.125
0
LINE
8
front_outsideCutPath
10
6.615
20
0.125
11
6.615
21
0.243
0
LINE
8
front_outsideCutPath
10
6.615
20
0.243
11
7.095
21
0.243
0
LINE
8
front_outsideCutPath
10
7.095
20
0.243
11
7.095
21
0.125
0
LINE
8
front_outsideCutPath
10
7.095
20
0.125
11
7.575
21
0.125
0
LINE
8
front_outsideCutPath
10
7.575
20
0.125
11
7.95
21
0.125
0
LINE
8
front_outsideCutPath
10
7.95
20
0.125
11
7.95
21
0.385
0
LINE
8
front_outsideCutPath
10
7.95
20
0.385
11
7.832
21
0.385
0
LINE
8
front_outsideCutPath
10
7.832
20
0.385
11
7.832
21
0.865
0
LINE
8
front_outsideCutPath
10
7.832
20
0.865
11
7.95
21
0.865
0
LINE
8
front_outsideCutPath
10
7.95
20
0.865
11
7.95
21
1.125
0
LINE
8
front_outsideCutPath
10
7.95
20
1.125
11
0
21
1.125
0
LINE
8
front_labelLayer
10
3.8093262
20
0.6564962
11
3.8093262
21
0.6438986
0
LINE
8
front_labelLayer
10
3.8093262
20
0.6438986
11
3.7820801
21
0.6438986
0
LINE
8
front_labelLayer
10
3.7820801
20
0.6438986
11
3.7820801
21
0.549465
0
LINE
8
front_labelLayer
10
3.7820801
20
0.549465
11
3.7658691
21
0.549465
0
LINE
8
front_labelLayer
10
3.7658691
20
0.549465
11
3.7658691
21
0.6438986
0
LINE
8
front_labelLayer
10
3.7658691
20
0.6438986
11
3.7467285
21
0.6438986
0
LINE
8
front_labelLayer
10
3.7467285
20
0.6438986
11
3.7467285
21
0.6512228
0
LINE
8
front_labelLayer
10
3.7467285
20
0.6512228
11
3.7658691
21
0.6570822
0
LINE
8
front_labelLayer
10
3.7658691
20
0.6570822
11
3.7658691
21
0.6630392
0
LINE
8
front_labelLayer
10
3.8202637
20
0.6990744
11
3.8160644
21
0.6860861
0
LINE
8
front_labelLayer
10
3.7820801
20
0.6634298
11
3.7820801
21
0.6564962
0
LINE
8
front_labelLayer
10
3.7820801
20
0.6564962
11
3.8093262
21
0.6564962
0
ARC
8
front_labelLayer
10
3.8315617
20
0.6637952
40
0.0656969
50
167.577327
51
180.6593399
0
ARC
8
front_labelLayer
10
3.80067
20
0.6709982
40
0.0339811
50
141.7429356
51
168.2329668
0
ARC
8
front_labelLayer
10
3.7956414
20
0.6736225
40
0.028427
50
98.255885
51
139.6203011
0
ARC
8
front_labelLayer
10
3.8000577
20
0.6532225
40
0.0492707
50
89.6696852
51
99.9320861
0
ARC
8
front_labelLayer
10
3.80007
20
0.6502804
40
0.0522127
50
81.5656179
51
89.7017633
0
ARC
8
front_labelLayer
10
3.7963884
20
0.6246233
40
0.0781322
50
75.9768892
51
81.654718
0
ARC
8
front_labelLayer
10
3.7900284
20
0.5982932
40
0.1052189
50
73.3002814
51
76.0910658
0
ARC
8
front_labelLayer
10
3.7916847
20
0.6112244
40
0.0787315
50
71.9614137
51
76.5912249
0
ARC
8
front_labelLayer
10
3.7977956
20
0.6371467
40
0.0520987
50
76.517593
51
83.0214281
0
ARC
8
front_labelLayer
10
3.799921
20
0.6542479
40
0.034866
50
83.0738031
51
89.7898926
0
ARC
8
front_labelLayer
10
3.7998527
20
0.6672501
40
0.0218642
50
89.4860408
51
103.4185793
0
ARC
8
front_labelLayer
10
3.7978816
20
0.6748249
40
0.0140396
50
102.7680616
51
144.3391685
0
ARC
8
front_labelLayer
10
3.8018543
20
0.6722687
40
0.0187593
50
145.0695618
51
162.1789155
0
ARC
8
front_labelLayer
10
3.8154753
20
0.6676871
40
0.0331293
50
161.8448896
51
171.7832777
0
ARC
8
front_labelLayer
10
3.8376855
20
0.6643536
40
0.0555881
50
171.6544395
51
178.4384415
0
ARC
8
front_labelLayer
10
3.8583692
20
0.6634669
40
0.0762891
50
178.1960416
51
180.0278404
0
LINE
8
front_labelLayer
10
3.8904785
20
0.6572775
11
3.8882324
21
0.6422384
0
LINE
8
front_labelLayer
10
3.8450683
20
0.6068869
11
3.8450683
21
0.549465
0
LINE
8
front_labelLayer
10
3.8450683
20
0.549465
11
3.8288574
21
0.549465
0
LINE
8
front_labelLayer
10
3.8288574
20
0.549465
11
3.8288574
21
0.6564962
0
LINE
8
front_labelLayer
10
3.8288574
20
0.6564962
11
3.8422363
21
0.6564962
0
LINE
8
front_labelLayer
10
3.8422363
20
0.6564962
11
3.8440918
21
0.636672
0
LINE
8
front_labelLayer
10
3.8440918
20
0.636672
11
3.844873
21
0.636672
0
ARC
8
front_labelLayer
10
3.8778519
20
0.5840578
40
0.0743917
50
84.9902506
51
90.1281388
0
ARC
8
front_labelLayer
10
3.8796431
20
0.6040787
40
0.0542911
50
78.4876197
51
85.0282759
0
ARC
8
front_labelLayer
10
3.8726955
20
0.5724632
40
0.0714841
50
77.4467169
51
81.6351309
0
ARC
8
front_labelLayer
10
3.8758169
20
0.593958
40
0.0497639
50
81.5904183
51
87.1937711
0
ARC
8
front_labelLayer
10
3.8764912
20
0.605643
40
0.0380602
50
87.3465205
51
89.9662379
0
ARC
8
front_labelLayer
10
3.876334
20
0.6156147
40
0.0280892
50
89.6335484
51
137.0874776
0
ARC
8
front_labelLayer
10
3.8832649
20
0.6078239
40
0.0384824
50
135.6180868
51
138.8303797
0
ARC
8
front_labelLayer
10
3.8822172
20
0.608849
40
0.0370188
50
138.9573062
51
174.5420756
0
ARC
8
front_labelLayer
10
3.8942681
20
0.6069644
40
0.0491997
50
173.6921028
51
180.0903504
0
ARC
8
front_labelLayer
10
3.8925769
20
0.6097959
40
0.0547539
50
139.4158146
51
150.6033391
0
ARC
8
front_labelLayer
10
3.882747
20
0.6182189
40
0.0418087
50
124.2308802
51
139.4183688
0
ARC
8
front_labelLayer
10
3.8775048
20
0.626134
40
0.0323159
50
89.6795007
51
124.4405536
0
ARC
8
front_labelLayer
10
3.9191367
20
0.6025146
40
0.0837461
50
349.1768864
51
0.3856248
0
ARC
8
front_labelLayer
10
3.9473369
20
0.5968936
40
0.0549924
50
330.2515819
51
349.4119823
0
ARC
8
front_labelLayer
10
3.9560189
20
0.5923809
40
0.0452169
50
318.1434308
51
329.7574593
0
ARC
8
front_labelLayer
10
3.9575804
20
0.5911293
40
0.0432188
50
278.8961014
51
317.9980153
0
ARC
8
front_labelLayer
10
3.9535469
20
0.6104448
40
0.0629336
50
269.7492017
51
279.8046791
0
ARC
8
front_labelLayer
10
3.9528907
20
0.5995663
40
0.0520558
50
253.5421056
51
270.4191077
0
ARC
8
front_labelLayer
10
3.9511604
20
0.5928703
40
0.0451445
50
238.8130209
51
253.2404834
0
ARC
8
front_labelLayer
10
3.9505995
20
0.5917405
40
0.0438875
50
207.7947861
51
238.6756684
0
ARC
8
front_labelLayer
10
3.9584782
20
0.5965826
40
0.0531186
50
205.6536001
51
208.4522827
0
ARC
8
front_labelLayer
10
3.9648093
20
0.5992316
40
0.0599735
50
188.9104131
51
205.3162971
0
ARC
8
front_labelLayer
10
3.9856191
20
0.6027579
40
0.0810788
50
179.7736074
51
189.094499
0
ARC
8
front_labelLayer
10
3.9887097
20
0.6036484
40
0.0841706
50
169.2442527
51
180.388085
0
ARC
8
front_labelLayer
10
3.9601241
20
0.6092992
40
0.0550331
50
150.7108189
51
169.469994
0
ARC
8
front_labelLayer
10
3.9510096
20
0.6139783
40
0.0447962
50
138.1772353
51
150.2273123
0
ARC
8
front_labelLayer
10
3.949483
20
0.6151501
40
0.0428775
50
99.1754685
51
137.983858
0
ARC
8
front_labelLayer
10
3.9536612
20
0.5954894
40
0.0629607
50
89.7325871
51
100.0760905
0
ARC
8
front_labelLayer
10
3.9544962
20
0.6039762
40
0.0544759
50
73.5231319
51
90.5691518
0
ARC
8
front_labelLayer
10
3.9576901
20
0.6155848
40
0.0424386
50
41.1448454
51
73.2128312
0
ARC
8
front_labelLayer
10
3.9515926
20
0.6103444
40
0.0504784
50
13.5015554
51
41.0703792
0
ARC
8
front_labelLayer
10
3.9280283
20
0.6041788
40
0.0748326
50
1.1279659
51
13.8794578
0
ARC
8
front_labelLayer
10
3.9075883
20
0.6030916
40
0.0952925
50
359.9919701
51
1.5395871
0
ARC
8
front_labelLayer
10
4.003427
20
0.6026557
40
0.0820902
50
179.7050433
51
187.9153356
0
ARC
8
front_labelLayer
10
3.9733197
20
0.5983323
40
0.0516744
50
187.7644428
51
200.0982239
0
ARC
8
front_labelLayer
10
3.9567325
20
0.5922544
40
0.0340089
50
200.0848839
51
216.9137233
0
ARC
8
front_labelLayer
10
3.9506756
20
0.5879287
40
0.0265687
50
217.3002221
51
261.7109441
0
ARC
8
front_labelLayer
10
3.9534869
20
0.6013337
40
0.040248
50
260.501674
51
270.2493434
0
ARC
8
front_labelLayer
10
3.954024
20
0.5987446
40
0.0376602
50
269.4493907
51
284.7241997
0
ARC
8
front_labelLayer
10
3.9570049
20
0.5876841
40
0.0262054
50
284.5672529
51
322.632865
0
ARC
8
front_labelLayer
10
3.9500353
20
0.5927192
40
0.0348013
50
323.0086559
51
342.638101
0
ARC
8
front_labelLayer
10
3.9300994
20
0.5992348
40
0.0557737
50
342.3609941
51
353.7525054
0
ARC
8
front_labelLayer
10
3.9007154
20
0.602778
40
0.0853692
50
353.5346969
51
0.2015201
0
ARC
8
front_labelLayer
10
3.9051938
20
0.6034898
40
0.0808912
50
359.7084885
51
7.897631
0
ARC
8
front_labelLayer
10
3.9348204
20
0.6077375
40
0.0509623
50
7.7441045
51
20.0687662
0
ARC
8
front_labelLayer
10
3.9513311
20
0.6137964
40
0.033375
50
20.0251391
51
37.4358422
0
ARC
8
front_labelLayer
10
3.9568055
20
0.6176813
40
0.0266677
50
37.9577758
51
80.4003101
0
ARC
8
front_labelLayer
10
3.9536943
20
0.6038003
40
0.0408801
50
79.3451575
51
90.3188421
0
ARC
8
front_labelLayer
10
3.9531163
20
0.606107
40
0.0385745
50
89.4794003
51
103.8814503
0
ARC
8
front_labelLayer
10
3.9498752
20
0.618446
40
0.0258189
50
103.4682758
51
142.3120118
0
ARC
8
front_labelLayer
10
3.9561735
20
0.614016
40
0.0335132
50
142.9017861
51
162.3768523
0
ARC
8
front_labelLayer
10
3.976032
20
0.607397
40
0.0544445
50
162.0652143
51
173.1681637
0
ARC
8
front_labelLayer
10
4.0069684
20
0.6034481
40
0.0856314
50
173.0070421
51
180.2474663
0
LINE
8
front_labelLayer
10
4.1207519
20
0.549465
11
4.104541
21
0.549465
0
LINE
8
front_labelLayer
10
4.104541
20
0.549465
11
4.104541
21
0.6187033
0
LINE
8
front_labelLayer
10
4.0475098
20
0.6056173
11
4.0475098
21
0.549465
0
LINE
8
front_labelLayer
10
4.0475098
20
0.549465
11
4.0312988
21
0.549465
0
LINE
8
front_labelLayer
10
4.0312988
20
0.549465
11
4.0312988
21
0.6564962
0
LINE
8
front_labelLayer
10
4.0312988
20
0.6564962
11
4.0444824
21
0.6564962
0
LINE
8
front_labelLayer
10
4.0444824
20
0.6564962
11
4.0471191
21
0.6418478
0
LINE
8
front_labelLayer
10
4.0471191
20
0.6418478
11
4.0479004
21
0.6418478
0
LINE
8
front_labelLayer
10
4.1207519
20
0.6192892
11
4.1207519
21
0.549465
0
ARC
8
front_labelLayer
10
4.0587307
20
0.6189672
40
0.0458111
50
359.6698765
51
8.6887859
0
ARC
8
front_labelLayer
10
4.0757095
20
0.6216618
40
0.0286202
50
8.4912009
51
22.6602758
0
ARC
8
front_labelLayer
10
4.0843319
20
0.6252468
40
0.0192822
50
22.7007993
51
42.3425039
0
ARC
8
front_labelLayer
10
4.0853012
20
0.6256836
40
0.0182745
50
43.3774176
51
71.5401096
0
ARC
8
front_labelLayer
10
4.0816733
20
0.6155445
40
0.0290416
50
71.0847469
51
84.3700044
0
ARC
8
front_labelLayer
10
4.080045
20
0.6016823
40
0.0429976
50
84.0228079
51
90.1510162
0
ARC
8
front_labelLayer
10
4.0795843
20
0.5956178
40
0.0490633
50
89.5943971
51
100.3728041
0
ARC
8
front_labelLayer
10
4.0761166
20
0.6138089
40
0.0305455
50
100.1182466
51
118.1604515
0
ARC
8
front_labelLayer
10
4.0726192
20
0.620665
40
0.022851
50
118.5423052
51
139.195322
0
ARC
8
front_labelLayer
10
4.0756668
20
0.618618
40
0.0264993
50
140.1513612
51
160.3157624
0
ARC
8
front_labelLayer
10
4.0940669
20
0.6117256
40
0.0461467
50
159.9534159
51
171.3799936
0
ARC
8
front_labelLayer
10
4.1241274
20
0.6068931
40
0.0765924
50
171.1761606
51
178.3206113
0
ARC
8
front_labelLayer
10
4.1517685
20
0.6056544
40
0.1042588
50
178.0853555
51
180.0203745
0
ARC
8
front_labelLayer
10
4.0756326
20
0.6242838
40
0.0328264
50
116.9451263
51
147.6521673
0
ARC
8
front_labelLayer
10
4.0789999
20
0.6186579
40
0.0393699
50
115.7993823
51
117.6035529
0
ARC
8
front_labelLayer
10
4.0807962
20
0.6144927
40
0.0439023
50
94.3237864
51
115.5442363
0
ARC
8
front_labelLayer
10
4.0818457
20
0.6053409
40
0.0531084
50
89.9578303
51
94.708343
0
ARC
8
front_labelLayer
10
4.0822812
20
0.5944632
40
0.0639874
50
80.5572193
51
90.3549855
0
ARC
8
front_labelLayer
10
4.086281
20
0.6176187
40
0.0404897
50
65.1090238
51
80.764716
0
ARC
8
front_labelLayer
10
4.0909568
20
0.627974
40
0.0291285
50
46.5574699
51
64.8788275
0
ARC
8
front_labelLayer
10
4.0913312
20
0.6290515
40
0.0280926
50
19.3842734
51
45.6007633
0
ARC
8
front_labelLayer
10
4.0750717
20
0.6229509
40
0.0454566
50
6.9640953
51
19.8357757
0
ARC
8
front_labelLayer
10
4.0499808
20
0.6195802
40
0.0707717
50
359.7644279
51
7.2099591
0
LINE
8
front_labelLayer
10
4.2032715
20
0.5628439
11
4.2032715
21
0.5504415
0
LINE
8
front_labelLayer
10
4.1552246
20
0.5802267
11
4.1552246
21
0.6438986
0
LINE
8
front_labelLayer
10
4.1552246
20
0.6438986
11
4.1398926
21
0.6438986
0
LINE
8
front_labelLayer
10
4.1398926
20
0.6438986
11
4.1398926
21
0.6517111
0
LINE
8
front_labelLayer
10
4.1398926
20
0.6517111
11
4.1552246
21
0.6584494
0
LINE
8
front_labelLayer
10
4.1552246
20
0.6584494
11
4.1620605
21
0.6813009
0
LINE
8
front_labelLayer
10
4.1620605
20
0.6813009
11
4.1714355
21
0.6813009
0
LINE
8
front_labelLayer
10
4.1714355
20
0.6813009
11
4.1714355
21
0.6564962
0
LINE
8
front_labelLayer
10
4.1714355
20
0.6564962
11
4.2024902
21
0.6564962
0
LINE
8
front_labelLayer
10
4.2024902
20
0.6564962
11
4.2024902
21
0.6438986
0
LINE
8
front_labelLayer
10
4.2024902
20
0.6438986
11
4.1714355
21
0.6438986
0
LINE
8
front_labelLayer
10
4.1714355
20
0.6438986
11
4.1714355
21
0.5809103
0
ARC
8
front_labelLayer
10
4.1887356
20
0.6141203
40
0.0532296
50
269.8788731
51
278.3028347
0
ARC
8
front_labelLayer
10
4.1890426
20
0.6113429
40
0.050437
50
278.4132993
51
278.9898015
0
ARC
8
front_labelLayer
10
4.183272
20
0.6480969
40
0.0876411
50
278.9614299
51
280.5138206
0
ARC
8
front_labelLayer
10
4.1888829
20
0.6179855
40
0.0570115
50
280.4914806
51
282.6189076
0
ARC
8
front_labelLayer
10
4.1939918
20
0.5952612
40
0.0337201
50
282.5832544
51
285.5897649
0
ARC
8
front_labelLayer
10
4.1960569
20
0.5875693
40
0.0257564
50
285.7634204
51
286.2666469
0
ARC
8
front_labelLayer
10
4.196451
20
0.5648686
40
0.015958
50
287.9926374
51
295.3027503
0
ARC
8
front_labelLayer
10
4.1926045
20
0.5765093
40
0.0282177
50
283.3099468
51
288.1197241
0
ARC
8
front_labelLayer
10
4.1885303
20
0.5935139
40
0.0457034
50
280.0118446
51
283.3727133
0
ARC
8
front_labelLayer
10
4.1861699
20
0.6061864
40
0.0585934
50
279.170217
51
280.1304458
0
ARC
8
front_labelLayer
10
4.1841553
20
0.6176994
40
0.0702804
50
275.5288654
51
279.2958166
0
ARC
8
front_labelLayer
10
4.1860449
20
0.5979707
40
0.0504612
50
270.8898403
51
275.5515747
0
ARC
8
front_labelLayer
10
4.1862614
20
0.5898009
40
0.0422891
50
270.024288
51
270.7684809
0
ARC
8
front_labelLayer
10
4.185625
20
0.5898481
40
0.0423412
50
253.7851799
51
270.8853848
0
ARC
8
front_labelLayer
10
4.1806087
20
0.5727401
40
0.0245131
50
190.3818247
51
253.8777273
0
ARC
8
front_labelLayer
10
4.2061774
20
0.5796539
40
0.0509561
50
179.355866
51
192.8482942
0
ARC
8
front_labelLayer
10
4.2040836
20
0.5807071
40
0.0326487
50
179.6433879
51
189.7506728
0
ARC
8
front_labelLayer
10
4.1925554
20
0.5786509
40
0.020939
50
189.5479354
51
205.7867018
0
ARC
8
front_labelLayer
10
4.1878163
20
0.5764651
40
0.0157212
50
206.1273676
51
221.4092964
0
ARC
8
front_labelLayer
10
4.1872875
20
0.5760638
40
0.0150593
50
221.5951536
51
262.3514846
0
ARC
8
front_labelLayer
10
4.1885519
20
0.5825629
40
0.0216723
50
261.3252509
51
270.1880438
0
LINE
8
left_outsideCutPath
10
8.193
20
1.125
11
8.193
21
0.865
0
LINE
8
left_outsideCutPath
10
8.193
20
0.865
11
8.075
21
0.865
0
LINE
8
left_outsideCutPath
10
8.075
20
0.865
11
8.075
21
0.385
0
LINE
8
left_outsideCutPath
10
8.075
20
0.385
11
8.193
21
0.385
0
LINE
8
left_outsideCutPath
10
8.193
20
0.385
11
8.193
21
0.125
0
LINE
8
left_outsideCutPath
10
8.193
20
0.125
11
8.93
21
0.125
0
LINE
8
left_outsideCutPath
10
8.93
20
0.125
11
8.93
21
0.243
0
LINE
8
left_outsideCutPath
10
8.93
20
0.243
11
9.41
21
0.243
0
LINE
8
left_outsideCutPath
10
9.41
20
0.243
11
9.41
21
0.125
0
LINE
8
left_outsideCutPath
10
9.41
20
0.125
11
9.89
21
0.125
0
LINE
8
left_outsideCutPath
10
9.89
20
0.125
11
9.89
21
0.243
0
LINE
8
left_outsideCutPath
10
9.89
20
0.243
11
10.37
21
0.243
0
LINE
8
left_outsideCutPath
10
10.37
20
0.243
11
10.37
21
0.125
0
LINE
8
left_outsideCutPath
10
10.37
20
0.125
11
10.85
21
0.125
0
LINE
8
left_outsideCutPath
10
10.85
20
0.125
11
10.85
21
0.243
0
LINE
8
left_outsideCutPath
10
10.85
20
0.243
11
11.33
21
0.243
0
LINE
8
left_outsideCutPath
10
11.33
20
0.243
11
11.33
21
0.125
0
LINE
8
left_outsideCutPath
10
11.33
20
0.125
11
11.81
21
0.125
0
LINE
8
left_outsideCutPath
10
11.81
20
0.125
11
11.81
21
0.243
0
LINE
8
left_outsideCutPath
10
11.81
20
0.243
11
12.29
21
0.243
0
LINE
8
left_outsideCutPath
10
12.29
20
0.243
11
12.29
21
0.125
0
LINE
8
left_outsideCutPath
10
12.29
20
0.125
11
12.77
21
0.125
0
LINE
8
left_outsideCutPath
10
12.77
20
0.125
11
12.77
21
0.243
0
LINE
8
left_outsideCutPath
10
12.77
20
0.243
11
13.25
21
0.243
0
LINE
8
left_outsideCutPath
10
13.25
20
0.243
11
13.25
21
0.125
0
LINE
8
left_outsideCutPath
10
13.25
20
0.125
11
13.73
21
0.125
0
LINE
8
left_outsideCutPath
10
13.73
20
0.125
11
13.73
21
0.243
0
LINE
8
left_outsideCutPath
10
13.73
20
0.243
11
14.21
21
0.243
0
LINE
8
left_outsideCutPath
10
14.21
20
0.243
11
14.21
21
0.125
0
LINE
8
left_outsideCutPath
10
14.21
20
0.125
11
14.69
21
0.125
0
LINE
8
left_outsideCutPath
10
14.69
20
0.125
11
14.69
21
0.243
0
LINE
8
left_outsideCutPath
10
14.69
20
0.243
11
15.17
21
0.243
0
LINE
8
left_outsideCutPath
10
15.17
20
0.243
11
15.17
21
0.125
0
LINE
8
left_outsideCutPath
10
15.17
20
0.125
11
15.65
21
0.125
0
LINE
8
left_outsideCutPath
10
15.65
20
0.125
11
15.907
21
0.125
0
LINE
8
left_outsideCutPath
10
15.907
20
0.125
11
15.907
21
0.385
0
LINE
8
left_outsideCutPath
10
15.907
20
0.385
11
16.025
21
0.385
0
LINE
8
left_outsideCutPath
10
16.025
20
0.385
11
16.025
21
0.865
0
LINE
8
left_outsideCutPath
10
16.025
20
0.865
11
15.907
21
0.865
0
LINE
8
left_outsideCutPath
10
15.907
20
0.865
11
15.907
21
1.125
0
LINE
8
left_outsideCutPath
10
15.907
20
1.125
11
8.193
21
1.125
0
LINE
8
left_labelLayer
10
11.9263183
20
0.7014181
11
11.9263183
21
0.549465
0
LINE
8
left_labelLayer
10
11.9263183
20
0.549465
11
11.9101074
21
0.549465
0
LINE
8
left_labelLayer
10
11.9101074
20
0.549465
11
11.9101074
21
0.7014181
0
LINE
8
left_labelLayer
10
11.9101074
20
0.7014181
11
11.9263183
21
0.7014181
0
LINE
8
left_labelLayer
10
12.0452637
20
0.6103048
11
12.0452637
21
0.6000509
0
LINE
8
left_labelLayer
10
12.0452637
20
0.6000509
11
11.9715332
21
0.6000509
0
LINE
8
left_labelLayer
10
12.0406738
20
0.5688986
11
12.0406738
21
0.5544455
0
LINE
8
left_labelLayer
10
11.9719238
20
0.6132345
11
12.0278808
21
0.6132345
0
ARC
8
left_labelLayer
10
12.0053744
20
0.6104995
40
0.0629899
50
256.0083354
51
270.4855302
0
ARC
8
left_labelLayer
10
12.000788
20
0.5926956
40
0.0446055
50
223.5462704
51
256.1955014
0
ARC
8
left_labelLayer
10
12.0033176
20
0.5945345
40
0.0477078
50
194.0872896
51
223.0540267
0
ARC
8
left_labelLayer
10
12.0265165
20
0.6008775
40
0.0717547
50
181.3585374
51
194.4910495
0
ARC
8
left_labelLayer
10
12.0474316
20
0.6020835
40
0.0926952
50
179.9887618
51
181.7972778
0
ARC
8
left_labelLayer
10
12.0398545
20
0.6026727
40
0.0851201
50
168.9535127
51
180.3843506
0
ARC
8
left_labelLayer
10
12.0120618
20
0.6083316
40
0.0567586
50
149.4080433
51
169.1844858
0
ARC
8
left_labelLayer
10
12.0043092
20
0.6124274
40
0.0480024
50
140.1055584
51
148.907097
0
ARC
8
left_labelLayer
10
11.9995521
20
0.6168134
40
0.0415407
50
92.4760328
51
140.5385822
0
ARC
8
left_labelLayer
10
12.0016699
20
0.6011838
40
0.0572655
50
89.9609532
51
93.9175978
0
ARC
8
left_labelLayer
10
12.0021787
20
0.6090623
40
0.0493893
50
74.2127546
51
90.5449158
0
ARC
8
left_labelLayer
10
12.0052714
20
0.6204593
40
0.037581
50
41.2069458
51
74.0226886
0
ARC
8
left_labelLayer
10
11.9994121
20
0.6153895
40
0.0453291
50
11.6001877
51
41.1490447
0
ARC
8
left_labelLayer
10
11.9792842
20
0.6107493
40
0.0659807
50
359.6140504
51
12.0327353
0
ARC
8
left_labelLayer
10
12.0365914
20
0.6013511
40
0.0650712
50
181.1448926
51
190.7999316
0
ARC
8
left_labelLayer
10
12.0136298
20
0.5968233
40
0.0416681
50
190.6004786
51
206.0278093
0
ARC
8
left_labelLayer
10
12.0034727
20
0.5920206
40
0.0304339
50
206.2939798
51
222.5563853
0
ARC
8
left_labelLayer
10
12.002575
20
0.5915507
40
0.0294561
50
223.0640663
51
258.1403165
0
ARC
8
left_labelLayer
10
12.0061569
20
0.6062967
40
0.0446259
50
257.5305676
51
270.4329539
0
ARC
8
left_labelLayer
10
12.0061981
20
0.6472892
40
0.0856177
50
270.1980835
51
292.2090593
0
ARC
8
left_labelLayer
10
12.0023502
20
0.6584639
40
0.09742
50
291.8200356
51
293.1653333
0
ARC
8
left_labelLayer
10
12.0018746
20
0.6437441
40
0.0973634
50
287.9030046
51
293.484366
0
ARC
8
left_labelLayer
10
12.0089588
20
0.6218834
40
0.0743836
50
281.9921771
51
287.8868277
0
ARC
8
left_labelLayer
10
12.0106617
20
0.6157506
40
0.0680319
50
275.9056797
51
281.6624207
0
ARC
8
left_labelLayer
10
12.0072367
20
0.6477073
40
0.1001713
50
271.9114822
51
275.9736319
0
ARC
8
left_labelLayer
10
12.0059844
20
0.6793979
40
0.1318862
50
269.9668955
51
271.9960044
0
ARC
8
left_labelLayer
10
12.0012025
20
0.6129242
40
0.0319524
50
89.4419867
51
106.2103244
0
ARC
8
left_labelLayer
10
11.9992802
20
0.6199309
40
0.024688
50
106.4659608
51
137.9180549
0
ARC
8
left_labelLayer
10
12.0047882
20
0.6150928
40
0.0320187
50
138.0981628
51
160.5883904
0
ARC
8
left_labelLayer
10
12.0189643
20
0.6098778
40
0.0471227
50
160.3365333
51
172.5315923
0
ARC
8
left_labelLayer
10
12.032828
20
0.6076541
40
0.0611592
50
172.1542371
51
174.7648446
0
ARC
8
left_labelLayer
10
11.9726407
20
0.6135494
40
0.0552411
50
359.6733731
51
8.921327
0
ARC
8
left_labelLayer
10
11.9923785
20
0.6167647
40
0.0352434
50
8.7335618
51
23.2761428
0
ARC
8
left_labelLayer
10
12.0017513
20
0.6206992
40
0.0250788
50
23.480739
51
39.706648
0
ARC
8
left_labelLayer
10
12.0040521
20
0.6224204
40
0.0222094
50
40.0826583
51
80.6242266
0
ARC
8
left_labelLayer
10
12.0016838
20
0.6115579
40
0.0333175
50
79.6489896
51
90.2925952
0
LINE
8
left_labelLayer
10
12.1211426
20
0.6564962
11
12.1211426
21
0.6438986
0
LINE
8
left_labelLayer
10
12.1211426
20
0.6438986
11
12.0938965
21
0.6438986
0
LINE
8
left_labelLayer
10
12.0938965
20
0.6438986
11
12.0938965
21
0.549465
0
LINE
8
left_labelLayer
10
12.0938965
20
0.549465
11
12.0776855
21
0.549465
0
LINE
8
left_labelLayer
10
12.0776855
20
0.549465
11
12.0776855
21
0.6438986
0
LINE
8
left_labelLayer
10
12.0776855
20
0.6438986
11
12.0585449
21
0.6438986
0
LINE
8
left_labelLayer
10
12.0585449
20
0.6438986
11
12.0585449
21
0.6512228
0
LINE
8
left_labelLayer
10
12.0585449
20
0.6512228
11
12.0776855
21
0.6570822
0
LINE
8
left_labelLayer
10
12.0776855
20
0.6570822
11
12.0776855
21
0.6630392
0
LINE
8
left_labelLayer
10
12.1320801
20
0.6990744
11
12.1278808
21
0.6860861
0
LINE
8
left_labelLayer
10
12.0938965
20
0.6634298
11
12.0938965
21
0.6564962
0
LINE
8
left_labelLayer
10
12.0938965
20
0.6564962
11
12.1211426
21
0.6564962
0
ARC
8
left_labelLayer
10
12.1433781
20
0.6637952
40
0.0656969
50
167.577327
51
180.6593399
0
ARC
8
left_labelLayer
10
12.1124864
20
0.6709982
40
0.0339811
50
141.7429356
51
168.2329668
0
ARC
8
left_labelLayer
10
12.1074578
20
0.6736225
40
0.028427
50
98.255885
51
139.6203011
0
ARC
8
left_labelLayer
10
12.1118741
20
0.6532225
40
0.0492707
50
89.6696852
51
99.9320861
0
ARC
8
left_labelLayer
10
12.1118864
20
0.6502804
40
0.0522127
50
81.5656179
51
89.7017633
0
ARC
8
left_labelLayer
10
12.1082048
20
0.6246233
40
0.0781322
50
75.9768892
51
81.654718
0
ARC
8
left_labelLayer
10
12.1018448
20
0.5982932
40
0.1052189
50
73.3002814
51
76.0910658
0
ARC
8
left_labelLayer
10
12.1035011
20
0.6112244
40
0.0787315
50
71.9614137
51
76.5912249
0
ARC
8
left_labelLayer
10
12.109612
20
0.6371467
40
0.0520987
50
76.517593
51
83.0214281
0
ARC
8
left_labelLayer
10
12.1117374
20
0.6542479
40
0.034866
50
83.0738031
51
89.7898926
0
ARC
8
left_labelLayer
10
12.1116691
20
0.6672501
40
0.0218642
50
89.4860408
51
103.4185793
0
ARC
8
left_labelLayer
10
12.109698
20
0.6748249
40
0.0140396
50
102.7680616
51
144.3391685
0
ARC
8
left_labelLayer
10
12.1136707
20
0.6722687
40
0.0187593
50
145.0695618
51
162.1789155
0
ARC
8
left_labelLayer
10
12.1272917
20
0.6676871
40
0.0331293
50
161.8448896
51
171.7832777
0
ARC
8
left_labelLayer
10
12.1495019
20
0.6643536
40
0.0555881
50
171.6544395
51
178.4384415
0
ARC
8
left_labelLayer
10
12.1701856
20
0.6634669
40
0.0762891
50
178.1960416
51
180.0278404
0
LINE
8
left_labelLayer
10
12.1898926
20
0.5628439
11
12.1898926
21
0.5504415
0
LINE
8
left_labelLayer
10
12.1418457
20
0.5802267
11
12.1418457
21
0.6438986
0
LINE
8
left_labelLayer
10
12.1418457
20
0.6438986
11
12.1265137
21
0.6438986
0
LINE
8
left_labelLayer
10
12.1265137
20
0.6438986
11
12.1265137
21
0.6517111
0
LINE
8
left_labelLayer
10
12.1265137
20
0.6517111
11
12.1418457
21
0.6584494
0
LINE
8
left_labelLayer
10
12.1418457
20
0.6584494
11
12.1486816
21
0.6813009
0
LINE
8
left_labelLayer
10
12.1486816
20
0.6813009
11
12.1580566
21
0.6813009
0
LINE
8
left_labelLayer
10
12.1580566
20
0.6813009
11
12.1580566
21
0.6564962
0
LINE
8
left_labelLayer
10
12.1580566
20
0.6564962
11
12.1891113
21
0.6564962
0
LINE
8
left_labelLayer
10
12.1891113
20
0.6564962
11
12.1891113
21
0.6438986
0
LINE
8
left_labelLayer
10
12.1891113
20
0.6438986
11
12.1580566
21
0.6438986
0
LINE
8
left_labelLayer
10
12.1580566
20
0.6438986
11
12.1580566
21
0.5809103
0
ARC
8
left_labelLayer
10
12.1753567
20
0.6141203
40
0.0532296
50
269.8788731
51
278.3028347
0
ARC
8
left_labelLayer
10
12.1756637
20
0.6113429
40
0.050437
50
278.4132993
51
278.9898015
0
ARC
8
left_labelLayer
10
12.1698931
20
0.6480969
40
0.0876411
50
278.9614299
51
280.5138206
0
ARC
8
left_labelLayer
10
12.175504
20
0.6179855
40
0.0570115
50
280.4914806
51
282.6189076
0
ARC
8
left_labelLayer
10
12.1806129
20
0.5952612
40
0.0337201
50
282.5832544
51
285.5897649
0
ARC
8
left_labelLayer
10
12.182678
20
0.5875693
40
0.0257564
50
285.7634204
51
286.2666469
0
ARC
8
left_labelLayer
10
12.1830721
20
0.5648686
40
0.015958
50
287.9926374
51
295.3027503
0
ARC
8
left_labelLayer
10
12.1792256
20
0.5765093
40
0.0282177
50
283.3099468
51
288.1197241
0
ARC
8
left_labelLayer
10
12.1751514
20
0.5935139
40
0.0457034
50
280.0118446
51
283.3727133
0
ARC
8
left_labelLayer
10
12.172791
20
0.6061864
40
0.0585934
50
279.170217
51
280.1304458
0
ARC
8
left_labelLayer
10
12.1707764
20
0.6176994
40
0.0702804
50
275.5288654
51
279.2958166
0
ARC
8
left_labelLayer
10
12.172666
20
0.5979707
40
0.0504612
50
270.8898403
51
275.5515747
0
ARC
8
left_labelLayer
10
12.1728824
20
0.5898009
40
0.0422891
50
270.024288
51
270.7684809
0
ARC
8
left_labelLayer
10
12.1722461
20
0.5898481
40
0.0423412
50
253.7851799
51
270.8853848
0
ARC
8
left_labelLayer
10
12.1672298
20
0.5727401
40
0.0245131
50
190.3818247
51
253.8777273
0
ARC
8
left_labelLayer
10
12.1927985
20
0.5796539
40
0.0509561
50
179.355866
51
192.8482942
0
ARC
8
left_labelLayer
10
12.1907047
20
0.5807071
40
0.0326487
50
179.6433879
51
189.7506728
0
ARC
8
left_labelLayer
10
12.1791765
20
0.5786509
40
0.020939
50
189.5479354
51
205.7867018
0
ARC
8
left_labelLayer
10
12.1744374
20
0.5764651
40
0.0157212
50
206.1273676
51
221.4092964
0
ARC
8
left_labelLayer
10
12.1739086
20
0.5760638
40
0.0150593
50
221.5951536
51
262.3514846
0
ARC
8
left_labelLayer
10
12.175173
20
0.5825629
40
0.0216723
50
261.3252509
51
270.1880438
0
LINE
8
back_outsideCutPath
10
0
20
2.25
11
0
21
1.99
0
LINE
8
back_outsideCutPath
10
0
20
1.99
11
0.118
21
1.99
0
LINE
8
back_outsideCutPath
10
0.118
20
1.99
11
0.118
21
1.51
0
LINE
8
back_outsideCutPath
10
0.118
20
1.51
11
0
21
1.51
0
LINE
8
back_outsideCutPath
10
0
20
1.51
11
0
21
1.25
0
LINE
8
back_outsideCutPath
10
0
20
1.25
11
0.855
21
1.25
0
LINE
8
back_outsideCutPath
10
0.855
20
1.25
11
0.855
21
1.368
0
LINE
8
back_outsideCutPath
10
0.855
20
1.368
11
1.335
21
1.368
0
LINE
8
back_outsideCutPath
10
1.335
20
1.368
11
1.335
21
1.25
0
LINE
8
back_outsideCutPath
10
1.335
20
1.25
11
1.815
21
1.25
0
LINE
8
back_outsideCutPath
10
1.815
20
1.25
11
1.815
21
1.368
0
LINE
8
back_outsideCutPath
10
1.815
20
1.368
11
2.295
21
1.368
0
LINE
8
back_outsideCutPath
10
2.295
20
1.368
11
2.295
21
1.25
0
LINE
8
back_outsideCutPath
10
2.295
20
1.25
11
2.775
21
1.25
0
LINE
8
back_outsideCutPath
10
2.775
20
1.25
11
2.775
21
1.368
0
LINE
8
back_outsideCutPath
10
2.775
20
1.368
11
3.255
21
1.368
0
LINE
8
back_outsideCutPath
10
3.255
20
1.368
11
3.255
21
1.25
0
LINE
8
back_outsideCutPath
10
3.255
20
1.25
11
3.735
21
1.25
0
LINE
8
back_outsideCutPath
10
3.735
20
1.25
11
3.735
21
1.368
0
LINE
8
back_outsideCutPath
10
3.735
20
1.368
11
4.215
21
1.368
0
LINE
8
back_outsideCutPath
10
4.215
20
1.368
11
4.215
21
1.25
0
LINE
8
back_outsideCutPath
10
4.215
20
1.25
11
4.695
21
1.25
0
LINE
8
back_outsideCutPath
10
4.695
20
1.25
11
4.695
21
1.368
0
LINE
8
back_outsideCutPath
10
4.695
20
1.368
11
5.175
21
1.368
0
LINE
8
back_outsideCutPath
10
5.175
20
1.368
11
5.175
21
1.25
0
LINE
8
back_outsideCutPath
10
5.175
20
1.25
11
5.655
21
1.25
0
LINE
8
back_outsideCutPath
10
5.655
20
1.25
11
5.655
21
1.368
0
LINE
8
back_outsideCutPath
10
5.655
20
1.368
11
6.135
21
1.368
0
LINE
8
back_outsideCutPath
10
6.135
20
1.368
11
6.135
21
1.25
0
LINE
8
back_outsideCutPath
10
6.135
20
1.25
11
6.615
21
1.25
0
LINE
8
back_outsideCutPath
10
6.615
20
1.25
11
6.615
21
1.368
0
LINE
8
back_outsideCutPath
10
6.615
20
1.368
11
7.095
21
1.368
0
LINE
8
back_outsideCutPath
10
7.095
20
1.368
11
7.095
21
1.25
0
LINE
8
back_outsideCutPath
10
7.095
20
1.25
11
7.575
21
1.25
0
LINE
8
back_outsideCutPath
10
7.575
20
1.25
11
7.95
21
1.25
0
LINE
8
back_outsideCutPath
10
7.95
20
1.25
11
7.95
21
1.51
0
LINE
8
back_outsideCutPath
10
7.95
20
1.51
11
7.832
21
1.51
0
LINE
8
back_outsideCutPath
10
7.832
20
1.51
11
7.832
21
1.99
0
LINE
8
back_outsideCutPath
10
7.832
20
1.99
11
7.95
21
1.99
0
LINE
8
back_outsideCutPath
10
7.95
20
1.99
11
7.95
21
2.25
0
LINE
8
back_outsideCutPath
10
7.95
20
2.25
11
0
21
2.25
0
LINE
8
back_labelLayer
10
3.7838867
20
1.6887706
11
3.7827148
21
1.6887706
0
LINE
8
back_labelLayer
10
3.7827148
20
1.6887706
11
3.7792969
21
1.6750011
0
LINE
8
back_labelLayer
10
3.7792969
20
1.6750011
11
3.7676758
21
1.6750011
0
LINE
8
back_labelLayer
10
3.7676758
20
1.6750011
11
3.7676758
21
1.8269542
0
LINE
8
back_labelLayer
10
3.7676758
20
1.8269542
11
3.7838867
21
1.8269542
0
LINE
8
back_labelLayer
10
3.7838867
20
1.8269542
11
3.7838867
21
1.7900402
0
LINE
8
back_labelLayer
10
3.7831055
20
1.7677745
11
3.7838867
21
1.7677745
0
ARC
8
back_labelLayer
10
3.8179673
20
1.7342472
40
0.0495454
50
74.2396734
51
90.5630359
0
ARC
8
back_labelLayer
10
3.8212422
20
1.7462638
40
0.0370911
50
38.5639623
51
74.066471
0
ARC
8
back_labelLayer
10
3.8128089
20
1.7397078
40
0.0477722
50
16.4717907
51
38.4068459
0
ARC
8
back_labelLayer
10
3.7885197
20
1.7320925
40
0.073225
50
5.1341586
51
16.7970642
0
ARC
8
back_labelLayer
10
3.7578696
20
1.7288361
40
0.1040448
50
359.8779178
51
5.4098039
0
ARC
8
back_labelLayer
10
3.7668788
20
1.7280525
40
0.0950369
50
350.6558325
51
0.3387672
0
ARC
8
back_labelLayer
10
3.7999997
20
1.7224178
40
0.0614408
50
335.8315874
51
350.8257795
0
ARC
8
back_labelLayer
10
3.8145888
20
1.7161202
40
0.0455526
50
321.3142265
51
335.54551
0
ARC
8
back_labelLayer
10
3.8201509
20
1.711586
40
0.0383769
50
274.0638028
51
321.4078975
0
ARC
8
back_labelLayer
10
3.8175548
20
1.7280137
40
0.0549658
50
269.9225036
51
275.549745
0
ARC
8
back_labelLayer
10
3.8172078
20
1.7222173
40
0.0491701
50
255.774458
51
270.3177848
0
ARC
8
back_labelLayer
10
3.8157934
20
1.7159543
40
0.0427521
50
245.976728
51
255.5492304
0
ARC
8
back_labelLayer
10
3.8130859
20
1.7096638
40
0.0359043
50
215.5851757
51
245.8363402
0
ARC
8
back_labelLayer
10
3.4457224
20
1.7897545
40
0.3381645
50
358.1133139
51
0.0484058
0
ARC
8
back_labelLayer
10
3.5397808
20
1.7866062
40
0.2440533
50
355.7248488
51
358.1250367
0
ARC
8
back_labelLayer
10
3.5753267
20
1.7842388
40
0.20843
50
355.4693777
51
355.6453845
0
ARC
8
back_labelLayer
10
3.8141192
20
1.7466927
40
0.0368571
50
95.1832055
51
145.1110162
0
ARC
8
back_labelLayer
10
3.8173607
20
1.7283938
40
0.0553964
50
89.8761313
51
96.8125595
0
ARC
8
back_labelLayer
10
3.8147964
20
1.7246641
40
0.0455531
50
89.5719183
51
100.7314666
0
ARC
8
back_labelLayer
10
3.8114237
20
1.7417046
40
0.0281828
50
100.4454399
51
119.6711678
0
ARC
8
back_labelLayer
10
3.8082989
20
1.7475465
40
0.0215607
50
120.1411493
51
142.4243649
0
ARC
8
back_labelLayer
10
3.8134685
20
1.7441266
40
0.027747
50
143.3371152
51
161.2570406
0
ARC
8
back_labelLayer
10
3.8350837
20
1.7364497
40
0.0506836
50
160.8904066
51
171.2359654
0
ARC
8
back_labelLayer
10
3.8712056
20
1.7306186
40
0.0872727
50
171.0657253
51
177.8459995
0
ARC
8
back_labelLayer
10
3.9086879
20
1.7287071
40
0.1248013
50
177.6158173
51
180.0425531
0
ARC
8
back_labelLayer
10
3.8910255
20
1.7281941
40
0.1071396
50
179.7752324
51
185.709026
0
ARC
8
back_labelLayer
10
3.8488008
20
1.7238397
40
0.0646914
50
185.5917073
51
194.2057914
0
ARC
8
back_labelLayer
10
3.8217498
20
1.7168192
40
0.0367451
50
193.9449292
51
208.0201081
0
ARC
8
back_labelLayer
10
3.8107991
20
1.7112512
40
0.0244633
50
208.5566716
51
217.5586365
0
ARC
8
back_labelLayer
10
3.809895
20
1.7108717
40
0.0235167
50
218.1683767
51
253.8056029
0
ARC
8
back_labelLayer
10
3.8142572
20
1.7243191
40
0.0376497
50
253.1379717
51
266.8488338
0
ARC
8
back_labelLayer
10
3.8154809
20
1.7388097
40
0.0521874
50
266.3819037
51
270.0509437
0
ARC
8
back_labelLayer
10
3.8158731
20
1.7189371
40
0.0323167
50
269.3869069
51
285.8628834
0
ARC
8
back_labelLayer
10
3.8182739
20
1.7102592
40
0.0233132
50
286.0168104
51
326.850509
0
ARC
8
back_labelLayer
10
3.8066858
20
1.7179361
40
0.0372135
50
326.7107525
51
343.6663326
0
ARC
8
back_labelLayer
10
3.7849914
20
1.7245652
40
0.0598972
50
343.4171959
51
353.636517
0
ARC
8
back_labelLayer
10
3.7522293
20
1.7284522
40
0.0928886
50
353.4935401
51
0.220526
0
ARC
8
back_labelLayer
10
3.7493798
20
1.729199
40
0.0957382
50
359.767017
51
6.3110191
0
ARC
8
back_labelLayer
10
3.7854317
20
1.7333397
40
0.0594498
50
6.1639781
51
16.0408846
0
ARC
8
back_labelLayer
10
3.808635
20
1.7401765
40
0.0352612
50
15.7824771
51
31.9743159
0
ARC
8
back_labelLayer
10
3.8161875
20
1.7445267
40
0.0265527
50
32.6412957
51
35.5425982
0
ARC
8
back_labelLayer
10
3.8185565
20
1.74622
40
0.0236408
50
35.5410435
51
79.8005957
0
ARC
8
back_labelLayer
10
3.8153821
20
1.7327244
40
0.0374924
50
78.6780788
51
90.3749801
0
LINE
8
back_labelLayer
10
3.9680664
20
1.6750011
11
3.9560547
21
1.6750011
0
LINE
8
back_labelLayer
10
3.9560547
20
1.6750011
11
3.952832
21
1.6902355
0
LINE
8
back_labelLayer
10
3.952832
20
1.6902355
11
3.9520508
21
1.6902355
0
LINE
8
back_labelLayer
10
3.934082
20
1.7385753
11
3.9522461
21
1.7391613
0
LINE
8
back_labelLayer
10
3.9522461
20
1.7391613
11
3.9522461
21
1.7458019
0
LINE
8
back_labelLayer
10
3.8992188
20
1.7622081
11
3.8942383
21
1.7746105
0
LINE
8
back_labelLayer
10
3.9680664
20
1.748048
11
3.9680664
21
1.6750011
0
LINE
8
back_labelLayer
10
3.9518555
20
1.7179699
11
3.9518555
21
1.7276378
0
LINE
8
back_labelLayer
10
3.9518555
20
1.7276378
11
3.9356445
21
1.7269542
0
ARC
8
back_labelLayer
10
3.8993085
20
1.7318786
40
0.0672004
50
314.7439445
51
321.7068169
0
ARC
8
back_labelLayer
10
3.915822
20
1.7150985
40
0.0436578
50
304.8472551
51
314.8533317
0
ARC
8
back_labelLayer
10
3.9237449
20
1.7038208
40
0.0298756
50
294.3945116
51
304.7356929
0
ARC
8
back_labelLayer
10
3.9210351
20
1.7108482
40
0.0373973
50
281.2998248
51
293.7286765
0
ARC
8
back_labelLayer
10
3.9174573
20
1.7281864
40
0.0551006
50
272.9336113
51
281.4154003
0
ARC
8
back_labelLayer
10
3.9162662
20
1.7460871
40
0.0730392
50
269.9566501
51
273.148074
0
ARC
8
back_labelLayer
10
3.9158602
20
1.7228039
40
0.0497572
50
258.6690721
51
270.4038436
0
ARC
8
back_labelLayer
10
3.9124021
20
1.7062602
40
0.0328568
50
238.3235031
51
258.9137417
0
ARC
8
back_labelLayer
10
3.9100165
20
1.7019128
40
0.0279056
50
227.7667465
51
237.8045612
0
ARC
8
back_labelLayer
10
3.9092778
20
1.7008811
40
0.0266456
50
192.0826194
51
227.4517753
0
ARC
8
back_labelLayer
10
3.9230253
20
1.7042684
40
0.0407999
50
179.5469715
51
192.6928552
0
ARC
8
back_labelLayer
10
3.9102532
20
1.7057446
40
0.0280504
50
115.4907791
51
182.3571705
0
ARC
8
back_labelLayer
10
3.9243018
20
1.6799754
40
0.057379
50
101.3571632
51
117.0795163
0
ARC
8
back_labelLayer
10
3.9355831
20
1.6272616
40
0.1112842
50
92.469925
51
101.7071528
0
ARC
8
back_labelLayer
10
3.9387804
20
1.5813156
40
0.1573298
50
91.7112926
51
92.9121474
0
ARC
8
back_labelLayer
10
3.9056779
20
1.7460511
40
0.0465689
50
359.6933716
51
8.0023435
0
ARC
8
back_labelLayer
10
3.9232958
20
1.7486157
40
0.0287656
50
7.8290371
51
20.6046547
0
ARC
8
back_labelLayer
10
3.9332642
20
1.7524293
40
0.018093
50
20.4099397
51
41.4467987
0
ARC
8
back_labelLayer
10
3.9347386
20
1.75324
40
0.0164552
50
42.728966
51
71.0387539
0
ARC
8
back_labelLayer
10
3.9312692
20
1.7438044
40
0.0265071
50
70.5733498
51
83.9904953
0
ARC
8
back_labelLayer
10
3.9296148
20
1.7303765
40
0.0400351
50
83.6477789
51
90.1754578
0
ARC
8
back_labelLayer
10
3.9299044
20
1.717642
40
0.0527709
50
90.4475934
51
103.7677964
0
ARC
8
back_labelLayer
10
3.9361073
20
1.6914725
40
0.079665
50
103.6215418
51
112.4323339
0
ARC
8
back_labelLayer
10
3.9467722
20
1.6645515
40
0.1086192
50
112.2134728
51
115.9635733
0
ARC
8
back_labelLayer
10
3.9297155
20
1.7088168
40
0.0747492
50
106.3571714
51
118.3343758
0
ARC
8
back_labelLayer
10
3.9329548
20
1.6987761
40
0.0852963
50
104.5180609
51
106.5455864
0
ARC
8
back_labelLayer
10
3.9305632
20
1.7087095
40
0.0750808
50
90.0720467
51
104.651529
0
ARC
8
back_labelLayer
10
3.9308557
20
1.7153092
40
0.0684821
50
81.568901
51
90.3237774
0
ARC
8
back_labelLayer
10
3.934815
20
1.7411136
40
0.0423763
50
68.2270517
51
81.7488165
0
ARC
8
back_labelLayer
10
3.9403293
20
1.7548332
40
0.0275901
50
47.8680344
51
68.2932393
0
ARC
8
back_labelLayer
10
3.9412261
20
1.7566211
40
0.0256681
50
19.2317656
51
46.675289
0
ARC
8
back_labelLayer
10
3.9263117
20
1.7510732
40
0.041579
50
6.3384539
51
19.6803834
0
ARC
8
back_labelLayer
10
3.9043011
20
1.7482692
40
0.0637657
50
359.8012022
51
6.6591225
0
ARC
8
back_labelLayer
10
3.9197613
20
1.7310626
40
0.044637
50
269.579308
51
282.0404789
0
ARC
8
back_labelLayer
10
3.9230179
20
1.7166161
40
0.0298293
50
281.7113299
51
306.4604968
0
ARC
8
back_labelLayer
10
3.9244674
20
1.7142383
40
0.0270567
50
306.9842172
51
313.8542626
0
ARC
8
back_labelLayer
10
3.924287
20
1.7141961
40
0.0271516
50
314.1904101
51
347.4254699
0
ARC
8
back_labelLayer
10
3.9106952
20
1.7176026
40
0.0411606
50
346.9163433
51
0.2829911
0
ARC
8
back_labelLayer
10
3.9182454
20
1.7179288
40
0.03361
50
359.7904243
51
0.0699152
0
ARC
8
back_labelLayer
10
3.9395018
20
1.6079632
40
0.1190535
50
91.8566657
51
96.4471318
0
ARC
8
back_labelLayer
10
3.9341379
20
1.6544082
40
0.0723
50
96.3561262
51
102.9942705
0
ARC
8
back_labelLayer
10
3.9268449
20
1.6854005
40
0.0404618
50
102.7995554
51
113.2447817
0
ARC
8
back_labelLayer
10
3.9208313
20
1.6997774
40
0.0248791
50
113.5868732
51
121.6846583
0
ARC
8
back_labelLayer
10
3.9166655
20
1.7061172
40
0.0172976
50
120.97247
51
172.4184349
0
ARC
8
back_labelLayer
10
3.9248242
20
1.7044864
40
0.0256058
50
171.2098159
51
180.2030004
0
ARC
8
back_labelLayer
10
3.9223789
20
1.7042035
40
0.023161
50
179.5245694
51
192.7803467
0
ARC
8
back_labelLayer
10
3.9145477
20
1.7023039
40
0.015104
50
192.3248693
51
222.0576995
0
ARC
8
back_labelLayer
10
3.9139633
20
1.701955
40
0.0144368
50
222.5831236
51
229.2582439
0
ARC
8
back_labelLayer
10
3.9159357
20
1.7044925
40
0.0176475
50
229.7834047
51
254.2711297
0
ARC
8
back_labelLayer
10
3.9185571
20
1.7132281
40
0.0267669
50
253.9389377
51
266.4559067
0
ARC
8
back_labelLayer
10
3.9193988
20
1.7229475
40
0.0365207
50
266.0805466
51
270.0546428
0
LINE
8
back_labelLayer
10
4.0728516
20
1.7784191
11
4.0678711
21
1.7646495
0
LINE
8
back_labelLayer
10
4.0712891
20
1.6929699
11
4.0712891
21
1.6786144
0
ARC
8
back_labelLayer
10
4.0437212
20
1.7336379
40
0.0605921
50
256.4255308
51
270.4889143
0
ARC
8
back_labelLayer
10
4.0388802
20
1.7147372
40
0.0410839
50
221.7976566
51
256.8016087
0
ARC
8
back_labelLayer
10
4.0435682
20
1.7182009
40
0.0468906
50
196.0167343
51
221.1349527
0
ARC
8
back_labelLayer
10
4.0671236
20
1.7254021
40
0.0715198
50
183.5910032
51
196.3550271
0
ARC
8
back_labelLayer
10
4.0935705
20
1.7277312
40
0.0980629
50
179.9404449
51
183.981352
0
ARC
8
back_labelLayer
10
4.0849537
20
1.7284091
40
0.0894478
50
169.8981548
51
180.368951
0
ARC
8
back_labelLayer
10
4.053816
20
1.7341683
40
0.057783
50
153.0879857
51
170.1048267
0
ARC
8
back_labelLayer
10
4.0419979
20
1.739815
40
0.04469
50
138.6546416
51
152.6853987
0
ARC
8
back_labelLayer
10
4.0397939
20
1.7414212
40
0.0419751
50
101.4911835
51
138.3132968
0
ARC
8
back_labelLayer
10
4.0448563
20
1.7203472
40
0.0636398
50
89.5892445
51
102.1777377
0
ARC
8
back_labelLayer
10
4.0452465
20
1.7108412
40
0.0731443
50
77.7691306
51
89.9482664
0
ARC
8
back_labelLayer
10
4.0438478
20
1.7031495
40
0.0809582
50
74.6786268
51
77.9550108
0
ARC
8
back_labelLayer
10
4.0513653
20
1.7303654
40
0.0527234
50
70.0914115
51
74.7426347
0
ARC
8
back_labelLayer
10
4.0584613
20
1.749799
40
0.0320349
50
63.5027307
51
70.1886901
0
ARC
8
back_labelLayer
10
4.0577692
20
1.7488014
40
0.0332369
50
63.013277
51
63.2023416
0
ARC
8
back_labelLayer
10
4.0412532
20
1.6976657
40
0.0720788
50
68.3282309
51
74.8853464
0
ARC
8
back_labelLayer
10
4.0374222
20
1.6840889
40
0.086185
50
74.7801017
51
77.4480345
0
ARC
8
back_labelLayer
10
4.0414275
20
1.7028753
40
0.0669774
50
77.2998912
51
81.7336023
0
ARC
8
back_labelLayer
10
4.0443481
20
1.7232219
40
0.0464222
50
81.6902448
51
87.5111943
0
ARC
8
back_labelLayer
10
4.0449062
20
1.7337261
40
0.0359039
50
87.6730851
51
89.9749404
0
ARC
8
back_labelLayer
10
4.0441178
20
1.7336824
40
0.0359566
50
88.7186621
51
112.5671745
0
ARC
8
back_labelLayer
10
4.0415633
20
1.7421284
40
0.0271913
50
114.4267632
51
161.6631571
0
ARC
8
back_labelLayer
10
4.0669387
20
1.7321952
40
0.0544224
50
160.1410464
51
175.1378842
0
ARC
8
back_labelLayer
10
4.1018458
20
1.7282726
40
0.0895414
50
174.5300764
51
180.1562286
0
ARC
8
back_labelLayer
10
4.0908157
20
1.7276243
40
0.0785121
50
179.7050847
51
188.0749814
0
ARC
8
back_labelLayer
10
4.062521
20
1.7234821
40
0.0499164
50
187.9296221
51
200.3901543
0
ARC
8
back_labelLayer
10
4.0472444
20
1.7178218
40
0.0336248
50
200.4189616
51
216.6398558
0
ARC
8
back_labelLayer
10
4.0408346
20
1.7132391
40
0.0257473
50
216.9693136
51
261.3099975
0
ARC
8
back_labelLayer
10
4.0436623
20
1.726411
40
0.0392033
50
260.1333356
51
270.2709451
0
ARC
8
back_labelLayer
10
4.0435328
20
1.7550717
40
0.0678643
50
270.265856
51
286.2883666
0
ARC
8
back_labelLayer
10
4.0393929
20
1.7704941
40
0.0838294
50
286.047872
51
292.3639522
0
ARC
8
back_labelLayer
10
4.0503933
20
1.7197209
40
0.0461127
50
282.0350395
51
296.9457162
0
ARC
8
back_labelLayer
10
4.0456518
20
1.7410918
40
0.0680026
50
272.5979314
51
282.1877066
0
ARC
8
back_labelLayer
10
4.044288
20
1.7621416
40
0.0890936
50
269.9680356
51
272.8605221
0
LINE
8
back_labelLayer
10
4.1119141
20
1.7297863
11
4.1126953
21
1.7297863
0
LINE
8
back_labelLayer
10
4.1254883
20
1.7454113
11
4.1600586
21
1.7820324
0
LINE
8
back_labelLayer
10
4.1600586
20
1.7820324
11
4.1792969
21
1.7820324
0
LINE
8
back_labelLayer
10
4.1792969
20
1.7820324
11
4.1359375
21
1.7364269
0
LINE
8
back_labelLayer
10
4.1359375
20
1.7364269
11
4.1823242
21
1.6750011
0
LINE
8
back_labelLayer
10
4.1823242
20
1.6750011
11
4.1626953
21
1.6750011
0
LINE
8
back_labelLayer
10
4.1626953
20
1.6750011
11
4.1249023
21
1.725587
0
LINE
8
back_labelLayer
10
4.1249023
20
1.725587
11
4.1126953
21
1.7150402
0
LINE
8
back_labelLayer
10
4.1126953
20
1.7150402
11
4.1126953
21
1.6750011
0
LINE
8
back_labelLayer
10
4.1126953
20
1.6750011
11
4.0966797
21
1.6750011
0
LINE
8
back_labelLayer
10
4.0966797
20
1.6750011
11
4.0966797
21
1.8269542
0
LINE
8
back_labelLayer
10
4.0966797
20
1.8269542
11
4.1126953
21
1.8269542
0
LINE
8
back_labelLayer
10
4.1126953
20
1.8269542
11
4.1126953
21
1.7463878
0
ARC
8
back_labelLayer
10
4.190952
20
1.674396
40
0.0958759
50
142.3226202
51
144.7090304
0
ARC
8
back_labelLayer
10
4.2418595
20
1.6351339
40
0.160165
50
140.4297167
51
142.3372348
0
ARC
8
back_labelLayer
10
4.3096257
20
1.5793439
40
0.2479419
50
139.2826695
51
140.4674659
0
ARC
8
back_labelLayer
10
4.3871336
20
1.5126508
40
0.3501937
50
138.3436147
51
139.2845342
0
ARC
8
back_labelLayer
10
4.0046127
20
1.7465899
40
0.1080828
50
358.274858
51
359.8928858
0
ARC
8
back_labelLayer
10
3.921983
20
1.7488755
40
0.1907439
50
357.5033878
51
358.3358404
0
ARC
8
back_labelLayer
10
3.7949945
20
1.754477
40
0.3178558
50
356.6328279
51
357.4917534
0
ARC
8
back_labelLayer
10
3.5894484
20
1.7664461
40
0.52375
50
356.0307396
51
356.6464079
0
ARC
8
back_labelLayer
10
4.858048
20
1.6784308
40
0.7478991
50
176.0314931
51
176.0626121
0
LINE
8
right_outsideCutPath
10
8.193
20
2.25
11
8.193
21
1.99
0
LINE
8
right_outsideCutPath
10
8.193
20
1.99
11
8.075
21
1.99
0
LINE
8
right_outsideCutPath
10
8.075
20
1.99
11
8.075
21
1.51
0
LINE
8
right_outsideCutPath
10
8.075
20
1.51
11
8.193
21
1.51
0
LINE
8
right_outsideCutPath
10
8.193
20
1.51
11
8.193
21
1.25
0
LINE
8
right_outsideCutPath
10
8.193
20
1.25
11
8.93
21
1.25
0
LINE
8
right_outsideCutPath
10
8.93
20
1.25
11
8.93
21
1.368
0
LINE
8
right_outsideCutPath
10
8.93
20
1.368
11
9.41
21
1.368
0
LINE
8
right_outsideCutPath
10
9.41
20
1.368
11
9.41
21
1.25
0
LINE
8
right_outsideCutPath
10
9.41
20
1.25
11
9.89
21
1.25
0
LINE
8
right_outsideCutPath
10
9.89
20
1.25
11
9.89
21
1.368
0
LINE
8
right_outsideCutPath
10
9.89
20
1.368
11
10.37
21
1.368
0
LINE
8
right_outsideCutPath
10
10.37
20
1.368
11
10.37
21
1.25
0
LINE
8
right_outsideCutPath
10
10.37
20
1.25
11
10.85
21
1.25
0
LINE
8
right_outsideCutPath
10
10.85
20
1.25
11
10.85
21
1.368
0
LINE
8
right_outsideCutPath
10
10.85
20
1.368
11
11.33
21
1.368
0
LINE
8
right_outsideCutPath
10
11.33
20
1.368
11
11.33
21
1.25
0
LINE
8
right_outsideCutPath
10
11.33
20
1.25
11
11.81
21
1.25
0
LINE
8
right_outsideCutPath
10
11.81
20
1.25
11
11.81
21
1.368
0
LINE
8
right_outsideCutPath
10
11.81
20
1.368
11
12.29
21
1.368
0
LINE
8
right_outsideCutPath
10
12.29
20
1.368
11
12.29
21
1.25
0
LINE
8
right_outsideCutPath
10
12.29
20
1.25
11
12.77
21
1.25
0
LINE
8
right_outsideCutPath
10
12.77
20
1.25
11
12.77
21
1.368
0
LINE
8
right_outsideCutPath
10
12.77
20
1.368
11
13.25
21
1.368
0
LINE
8
right_outsideCutPath
10
13.25
20
1.368
11
13.25
21
1.25
0
LINE
8
right_outsideCutPath
10
13.25
20
1.25
11
13.73
21
1.25
0
LINE
8
right_outsideCutPath
10
13.73
20
1.25
11
13.73
21
1.368
0
LINE
8
right_outsideCutPath
10
13.73
20
1.368
11
14.21
21
1.368
0
LINE
8
right_outsideCutPath
10
14.21
20
1.368
11
14.21
21
1.25
0
LINE
8
right_outsideCutPath
10
14.21
20
1.25
11
14.69
21
1.25
0
LINE
8
right_outsideCutPath
10
14.69
20
1.25
11
14.69
21
1.368
0
LINE
8
right_outsideCutPath
10
14.69
20
1.368
11
15.17
21
1.368
0
LINE
8
right_outsideCutPath
10
15.17
20
1.368
11
15.17
21
1.25
0
LINE
8
right_outsideCutPath
10
15.17
20
1.25
11
15.65
21
1.25
0
LINE
8
right_outsideCutPath
10
15.65
20
1.25
11
15.907
21
1.25
0
LINE
8
right_outsideCutPath
10
15.907
20
1.25
11
15.907
21
1.51
0
LINE
8
right_outsideCutPath
10
15.907
20
1.51
11
16.025
21
1.51
0
LINE
8
right_outsideCutPath
10
16.025
20
1.51
11
16.025
21
1.99
0
LINE
8
right_outsideCutPath
10
16.025
20
1.99
11
15.907
21
1.99
0
LINE
8
right_outsideCutPath
10
15.907
20
1.99
11
15.907
21
2.25
0
LINE
8
right_outsideCutPath
10
15.907
20
2.25
11
8.193
21
2.25
0
LINE
8
right_labelLayer
10
11.9047363
20
1.8058599
11
11.9024902
21
1.7908208
0
LINE
8
right_labelLayer
10
11.8593262
20
1.7554693
11
11.8593262
21
1.6980474
0
LINE
8
right_labelLayer
10
11.8593262
20
1.6980474
11
11.8431152
21
1.6980474
0
LINE
8
right_labelLayer
10
11.8431152
20
1.6980474
11
11.8431152
21
1.8050787
0
LINE
8
right_labelLayer
10
11.8431152
20
1.8050787
11
11.8564941
21
1.8050787
0
LINE
8
right_labelLayer
10
11.8564941
20
1.8050787
11
11.8583496
21
1.7852544
0
LINE
8
right_labelLayer
10
11.8583496
20
1.7852544
11
11.8591308
21
1.7852544
0
ARC
8
right_labelLayer
10
11.8921097
20
1.7326402
40
0.0743917
50
84.9902506
51
90.1281388
0
ARC
8
right_labelLayer
10
11.8939009
20
1.7526611
40
0.0542911
50
78.4876197
51
85.0282759
0
ARC
8
right_labelLayer
10
11.8869533
20
1.7210456
40
0.0714841
50
77.4467169
51
81.6351309
0
ARC
8
right_labelLayer
10
11.8900747
20
1.7425404
40
0.0497639
50
81.5904183
51
87.1937711
0
ARC
8
right_labelLayer
10
11.890749
20
1.7542254
40
0.0380602
50
87.3465205
51
89.9662379
0
ARC
8
right_labelLayer
10
11.8905918
20
1.7641971
40
0.0280892
50
89.6335484
51
137.0874776
0
ARC
8
right_labelLayer
10
11.8975227
20
1.7564063
40
0.0384824
50
135.6180868
51
138.8303797
0
ARC
8
right_labelLayer
10
11.896475
20
1.7574315
40
0.0370188
50
138.9573062
51
174.5420756
0
ARC
8
right_labelLayer
10
11.9085259
20
1.7555469
40
0.0491997
50
173.6921028
51
180.0903504
0
ARC
8
right_labelLayer
10
11.9068348
20
1.7583783
40
0.0547539
50
139.4158146
51
150.6033391
0
ARC
8
right_labelLayer
10
11.8970049
20
1.7668013
40
0.0418087
50
124.2308802
51
139.4183688
0
ARC
8
right_labelLayer
10
11.8917626
20
1.7747164
40
0.0323159
50
89.6795007
51
124.4405536
0
LINE
8
right_labelLayer
10
11.9409668
20
1.8050787
11
11.9409668
21
1.6980474
0
LINE
8
right_labelLayer
10
11.9409668
20
1.6980474
11
11.9247558
21
1.6980474
0
LINE
8
right_labelLayer
10
11.9247558
20
1.6980474
11
11.9247558
21
1.8050787
0
LINE
8
right_labelLayer
10
11.9247558
20
1.8050787
11
11.9409668
21
1.8050787
0
ARC
8
right_labelLayer
10
11.9413572
20
1.8341926
40
0.0179689
50
170.8442589
51
180.3507378
0
ARC
8
right_labelLayer
10
11.9346286
20
1.8353172
40
0.0111473
50
155.9667641
51
171.048175
0
ARC
8
right_labelLayer
10
11.9313706
20
1.8367626
40
0.0075831
50
133.7885839
51
155.915217
0
ARC
8
right_labelLayer
10
11.9325726
20
1.8354332
40
0.0093748
50
92.645489
51
133.469742
0
ARC
8
right_labelLayer
10
11.9329494
20
1.8324967
40
0.0123279
50
89.9555531
51
93.7648046
0
ARC
8
right_labelLayer
10
11.9331069
20
1.8352747
40
0.0095512
50
46.3701566
51
90.8874369
0
ARC
8
right_labelLayer
10
11.9340579
20
1.8362561
40
0.0081847
50
17.7250123
51
46.448471
0
ARC
8
right_labelLayer
10
11.9296249
20
1.8347297
40
0.0128724
50
4.9420061
51
18.189444
0
ARC
8
right_labelLayer
10
11.9239469
20
1.8341179
40
0.0185824
50
359.891022
51
5.3130894
0
ARC
8
right_labelLayer
10
11.9257519
20
1.8339697
40
0.0167777
50
349.8342105
51
0.3855671
0
ARC
8
right_labelLayer
10
11.9318624
20
1.8328303
40
0.0105622
50
332.6306565
51
350.0673979
0
ARC
8
right_labelLayer
10
11.934239
20
1.8316567
40
0.0079125
50
313.6166406
51
332.2664059
0
ARC
8
right_labelLayer
10
11.9330944
20
1.8326989
40
0.0094572
50
269.1793011
51
314.2810813
0
ARC
8
right_labelLayer
10
11.9328521
20
1.8335415
40
0.0102993
50
250.500614
51
270.5947268
0
ARC
8
right_labelLayer
10
11.9325402
20
1.8323752
40
0.0090964
50
225.1327482
51
249.900386
0
ARC
8
right_labelLayer
10
11.9320538
20
1.8318363
40
0.0083713
50
197.7954675
51
224.8896851
0
ARC
8
right_labelLayer
10
11.9366274
20
1.8334022
40
0.0132051
50
184.9974498
51
198.1999113
0
ARC
8
right_labelLayer
10
11.9425111
20
1.8340427
40
0.0191226
50
179.880666
51
185.373693
0
LINE
8
right_labelLayer
10
12.0259277
20
1.8050787
11
12.0629394
21
1.8050787
0
LINE
8
right_labelLayer
10
12.0629394
20
1.8050787
11
12.0629394
21
1.7948248
0
LINE
8
right_labelLayer
10
12.0629394
20
1.7948248
11
12.0431152
21
1.792481
0
LINE
8
right_labelLayer
10
12.0065918
20
1.7150396
11
12.0255371
21
1.7150396
0
LINE
8
right_labelLayer
10
12.0203613
20
1.7004888
11
12.0009277
21
1.7004888
0
ARC
8
right_labelLayer
10
12.0224528
20
1.7761296
40
0.0263497
50
29.4590132
51
38.3566197
0
ARC
8
right_labelLayer
10
12.011723
20
1.7700014
40
0.0387061
50
23.1829534
51
29.5463414
0
ARC
8
right_labelLayer
10
12.0012137
20
1.7653477
40
0.0501989
50
21.2546397
51
23.3436061
0
ARC
8
right_labelLayer
10
12.0188786
20
1.7723749
40
0.0311885
50
6.8511496
51
20.9874486
0
ARC
8
right_labelLayer
10
12.0100798
20
1.7711829
40
0.0400668
50
359.8732927
51
7.0425726
0
ARC
8
right_labelLayer
10
12.0129821
20
1.7707085
40
0.0371664
50
342.5657051
51
0.5947441
0
ARC
8
right_labelLayer
10
12.019838
20
1.7688162
40
0.0300595
50
310.6109253
51
342.0916123
0
ARC
8
right_labelLayer
10
12.0159949
20
1.7732879
40
0.0359557
50
284.9326955
51
310.6216858
0
ARC
8
right_labelLayer
10
12.0111886
20
1.7901264
40
0.0534649
50
272.5318743
51
285.2594771
0
ARC
8
right_labelLayer
10
12.0099499
20
1.8071205
40
0.0704987
50
269.9693124
51
272.9275601
0
ARC
8
right_labelLayer
10
12.0097981
20
1.7887282
40
0.0521067
50
263.4827943
51
270.1253201
0
ARC
8
right_labelLayer
10
12.0089685
20
1.7807966
40
0.0441324
50
259.5023232
51
263.384209
0
ARC
8
right_labelLayer
10
12.0142065
20
1.7117797
40
0.0288595
50
117.3947995
51
128.4059364
0
ARC
8
right_labelLayer
10
12.0067748
20
1.7210032
40
0.0170151
50
128.0899401
51
147.1406177
0
ARC
8
right_labelLayer
10
12.0027716
20
1.7236889
40
0.0121955
50
147.5350119
51
180.2611268
0
ARC
8
right_labelLayer
10
11.9989492
20
1.7235265
40
0.0083737
50
179.2691135
51
198.7050981
0
ARC
8
right_labelLayer
10
11.9974081
20
1.7231192
40
0.0067842
50
199.6210877
51
239.5746699
0
ARC
8
right_labelLayer
10
11.998698
20
1.7248992
40
0.0089747
50
238.2283856
51
239.8436635
0
ARC
8
right_labelLayer
10
11.9997525
20
1.7270669
40
0.0113801
50
240.7354076
51
254.4974373
0
ARC
8
right_labelLayer
10
12.0028543
20
1.7377633
40
0.0225168
50
254.1667068
51
262.2119396
0
ARC
8
right_labelLayer
10
12.0053108
20
1.7549187
40
0.0398471
50
262.0550886
51
267.2086312
0
ARC
8
right_labelLayer
10
12.0064953
20
1.7765155
40
0.061476
50
267.0862093
51
270.0899468
0
ARC
8
right_labelLayer
10
12.0258915
20
1.6486778
40
0.0663627
50
81.5750041
51
90.3059588
0
ARC
8
right_labelLayer
10
12.0295318
20
1.672421
40
0.0423425
50
68.3677297
51
81.7405358
0
ARC
8
right_labelLayer
10
12.0342886
20
1.6845761
40
0.0292899
50
52.1863819
51
68.2519424
0
ARC
8
right_labelLayer
10
12.0376116
20
1.6890528
40
0.0237162
50
8.6202977
51
51.8977041
0
ARC
8
right_labelLayer
10
12.0259595
20
1.6865871
40
0.035613
50
359.7412545
51
9.7326512
0
ARC
8
right_labelLayer
10
12.0264774
20
1.6859847
40
0.0350976
50
340.5263463
51
0.7208921
0
ARC
8
right_labelLayer
10
12.0316323
20
1.6847011
40
0.029814
50
302.9902744
51
339.5494165
0
ARC
8
right_labelLayer
10
12.0264734
20
1.6911972
40
0.0380799
50
303.1819072
51
304.1791041
0
ARC
8
right_labelLayer
10
12.021174
20
1.7003157
40
0.048615
50
286.2536237
51
302.52742
0
ARC
8
right_labelLayer
10
12.0119908
20
1.73061
40
0.0802697
50
276.4941022
51
286.4942472
0
ARC
8
right_labelLayer
10
12.0062649
20
1.7784795
40
0.1284801
50
269.7538145
51
276.6167479
0
ARC
8
right_labelLayer
10
12.0052865
20
1.7408414
40
0.0908418
50
262.5638988
51
270.2689377
0
ARC
8
right_labelLayer
10
12.0008356
20
1.7078496
40
0.0575517
50
251.2099533
51
262.7069053
0
ARC
8
right_labelLayer
10
11.9944237
20
1.6890314
40
0.0376711
50
235.9661932
51
251.2233816
0
ARC
8
right_labelLayer
10
11.9876282
20
1.6793378
40
0.0258355
50
208.9024907
51
236.4232771
0
ARC
8
right_labelLayer
10
11.9882549
20
1.6790779
40
0.026264
50
182.2093589
51
207.7454542
0
ARC
8
right_labelLayer
10
11.9962082
20
1.6798742
40
0.0342455
50
179.9847709
51
183.0277
0
ARC
8
right_labelLayer
10
11.9867468
20
1.6803179
40
0.0247878
50
138.3916854
51
181.0044098
0
ARC
8
right_labelLayer
10
11.9893651
20
1.6779639
40
0.0283087
50
113.8128111
51
138.3484036
0
ARC
8
right_labelLayer
10
11.9943304
20
1.6672392
40
0.0401257
50
102.2874501
51
114.1162541
0
ARC
8
right_labelLayer
10
11.9927692
20
1.7217555
40
0.016825
50
216.5858432
51
245.4962519
0
ARC
8
right_labelLayer
10
11.9951196
20
1.7237514
40
0.019903
50
215.450589
51
217.1666006
0
ARC
8
right_labelLayer
10
11.9911674
20
1.7209017
40
0.0150308
50
182.1788364
51
215.3397117
0
ARC
8
right_labelLayer
10
11.9947802
20
1.7212881
40
0.0186573
50
179.9954851
51
182.9427545
0
ARC
8
right_labelLayer
10
11.9946572
20
1.7214468
40
0.0185348
50
161.7209532
51
180.4860911
0
ARC
8
right_labelLayer
10
11.9926222
20
1.7220023
40
0.0164286
50
144.495717
51
161.3344624
0
ARC
8
right_labelLayer
10
11.9980492
20
1.717958
40
0.0231959
50
132.722631
51
144.1486357
0
ARC
8
right_labelLayer
10
12.0067633
20
1.708655
40
0.0359426
50
125.2219068
51
132.8663963
0
ARC
8
right_labelLayer
10
12.0155467
20
1.6964544
40
0.0509755
50
121.2377456
51
125.3778137
0
ARC
8
right_labelLayer
10
11.9999985
20
1.7662908
40
0.0284193
50
215.164242
51
247.4747282
0
ARC
8
right_labelLayer
10
12.005211
20
1.7705077
40
0.035112
50
212.4639525
51
215.8910398
0
ARC
8
right_labelLayer
10
12.0039064
20
1.7695732
40
0.0335098
50
183.0151972
51
212.3131133
0
ARC
8
right_labelLayer
10
12.0112753
20
1.7703934
40
0.0409139
50
179.9758597
51
183.6194366
0
ARC
8
right_labelLayer
10
12.0171864
20
1.770807
40
0.0468267
50
166.8178593
51
180.4849702
0
ARC
8
right_labelLayer
10
12.0016583
20
1.7747293
40
0.0308147
50
132.3288357
51
167.3343044
0
ARC
8
right_labelLayer
10
12.0037382
20
1.7717394
40
0.0344289
50
106.2198316
51
131.5371624
0
ARC
8
right_labelLayer
10
12.0089937
20
1.7547271
40
0.0522328
50
93.6309842
51
106.5428346
0
ARC
8
right_labelLayer
10
12.0107135
20
1.7354733
40
0.0715586
50
89.9379715
51
94.0289187
0
ARC
8
right_labelLayer
10
12.0109915
20
1.7448852
40
0.0621469
50
82.5862941
51
90.1848703
0
ARC
8
right_labelLayer
10
12.0128866
20
1.7595658
40
0.0473444
50
74.0109923
51
82.5680458
0
ARC
8
right_labelLayer
10
11.9938687
20
1.6798576
40
0.0162824
50
179.222264
51
200.935429
0
ARC
8
right_labelLayer
10
11.9919305
20
1.6794084
40
0.0143143
50
202.0280657
51
236.1475351
0
ARC
8
right_labelLayer
10
11.9948617
20
1.6831323
40
0.0190432
50
235.0647731
51
238.5014634
0
ARC
8
right_labelLayer
10
11.9982439
20
1.6891783
40
0.0259669
50
239.1084986
51
254.4848813
0
ARC
8
right_labelLayer
10
12.0027635
20
1.7047574
40
0.0421877
50
254.2300383
51
263.4937633
0
ARC
8
right_labelLayer
10
12.005605
20
1.7288139
40
0.0664111
50
263.4097592
51
270.1464956
0
LINE
8
right_labelLayer
10
12.0057748
20
1.662403
11
12.0059082
21
1.6624029
0
ARC
8
right_labelLayer
10
12.0062986
20
1.7713845
40
0.1089824
50
269.7947716
51
275.3979328
0
ARC
8
right_labelLayer
10
12.0103744
20
1.729509
40
0.066909
50
275.2965028
51
283.3523217
0
ARC
8
right_labelLayer
10
12.0170202
20
1.7021386
40
0.0387441
50
283.1374876
51
295.8577082
0
ARC
8
right_labelLayer
10
12.0219673
20
1.6913495
40
0.0268789
50
296.3985129
51
301.8038469
0
ARC
8
right_labelLayer
10
12.0238745
20
1.6887293
40
0.0236481
50
301.2226435
51
318.6227383
0
ARC
8
right_labelLayer
10
12.0282292
20
1.6847063
40
0.0177216
50
319.0759504
51
1.1407448
0
ARC
8
right_labelLayer
10
12.024014
20
1.6852328
40
0.021934
50
359.5464055
51
10.9902476
0
ARC
8
right_labelLayer
10
12.0324815
20
1.686954
40
0.0132938
50
10.6650915
51
30.9315908
0
ARC
8
right_labelLayer
10
12.035172
20
1.6884459
40
0.0102196
50
31.5105291
51
58.0752604
0
ARC
8
right_labelLayer
10
12.0326509
20
1.6839284
40
0.0153889
50
59.0029166
51
73.8532464
0
ARC
8
right_labelLayer
10
12.027565
20
1.6672724
40
0.0328033
50
73.4107373
51
81.5894137
0
ARC
8
right_labelLayer
10
12.023257
20
1.6394095
40
0.0609969
50
81.4145208
51
86.5755525
0
ARC
8
right_labelLayer
10
12.0206161
20
1.5973923
40
0.1030967
50
86.5052915
51
90.1416103
0
ARC
8
right_labelLayer
10
12.0006969
20
1.6632152
40
0.0372743
50
89.645239
51
100.0198094
0
ARC
8
right_labelLayer
10
11.9983556
20
1.6759605
40
0.0243163
50
99.8123462
51
116.820762
0
ARC
8
right_labelLayer
10
11.9960695
20
1.6807816
40
0.0189828
50
117.2284211
51
130.5037182
0
ARC
8
right_labelLayer
10
11.994901
20
1.6822833
40
0.0170822
50
130.7951036
51
169.0419262
0
ARC
8
right_labelLayer
10
12.0035381
20
1.6802507
40
0.0259508
50
168.2610496
51
180.3798332
0
ARC
8
right_labelLayer
10
12.0180221
20
1.7705592
40
0.0316461
50
179.5617304
51
191.6518383
0
ARC
8
right_labelLayer
10
12.007015
20
1.7681813
40
0.0203857
50
191.3542908
51
213.3675458
0
ARC
8
right_labelLayer
10
12.0043733
20
1.7666554
40
0.0173412
50
213.9574614
51
227.7990248
0
ARC
8
right_labelLayer
10
12.0066738
20
1.7694444
40
0.0209533
50
228.2617954
51
254.7341887
0
ARC
8
right_labelLayer
10
12.0096087
20
1.7795
40
0.0314274
50
254.3992878
51
267.4375004
0
ARC
8
right_labelLayer
10
12.0103806
20
1.7899411
40
0.0418937
50
267.0212576
51
270.0270162
0
ARC
8
right_labelLayer
10
12.010877
20
1.7833608
40
0.0353167
50
269.2267684
51
284.3782336
0
ARC
8
right_labelLayer
10
12.015691
20
1.7665902
40
0.017883
50
282.780163
51
346.4823818
0
ARC
8
right_labelLayer
10
12.001305
20
1.7706658
40
0.0328286
50
345.4351805
51
0.7479289
0
ARC
8
right_labelLayer
10
11.999273
20
1.7715922
40
0.0348614
50
359.1816956
51
15.04241
0
ARC
8
right_labelLayer
10
12.0150715
20
1.7762001
40
0.0184117
50
13.9536639
51
77.6674057
0
ARC
8
right_labelLayer
10
12.0105407
20
1.7599608
40
0.035257
50
76.1107127
51
90.7040834
0
ARC
8
right_labelLayer
10
12.0098615
20
1.7612023
40
0.034014
50
89.5857947
51
101.3336659
0
ARC
8
right_labelLayer
10
12.0074296
20
1.7727978
40
0.0221669
50
101.060422
51
121.9749768
0
ARC
8
right_labelLayer
10
12.0057264
20
1.7758644
40
0.0186645
50
122.5249431
51
134.9967434
0
ARC
8
right_labelLayer
10
12.0064257
20
1.7754467
40
0.0194554
50
135.583361
51
163.0009135
0
ARC
8
right_labelLayer
10
12.0166958
20
1.7720807
40
0.0302616
50
162.5910127
51
175.7358626
0
ARC
8
right_labelLayer
10
12.0289538
20
1.7708679
40
0.0425769
50
175.3349005
51
180.0896184
0
LINE
8
right_labelLayer
10
12.1743652
20
1.6980474
11
12.1581543
21
1.6980474
0
LINE
8
right_labelLayer
10
12.1581543
20
1.6980474
11
12.1581543
21
1.7672857
0
LINE
8
right_labelLayer
10
12.101123
20
1.7540044
11
12.101123
21
1.6980474
0
LINE
8
right_labelLayer
10
12.101123
20
1.6980474
11
12.0849121
21
1.6980474
0
LINE
8
right_labelLayer
10
12.0849121
20
1.6980474
11
12.0849121
21
1.8500005
0
LINE
8
right_labelLayer
10
12.0849121
20
1.8500005
11
12.101123
21
1.8500005
0
LINE
8
right_labelLayer
10
12.101123
20
1.8500005
11
12.101123
21
1.8040044
0
LINE
8
right_labelLayer
10
12.1003418
20
1.7902349
11
12.1013183
21
1.7902349
0
LINE
8
right_labelLayer
10
12.1743652
20
1.7678716
11
12.1743652
21
1.6980474
0
ARC
8
right_labelLayer
10
12.112344
20
1.7675496
40
0.0458111
50
359.6698765
51
8.6887859
0
ARC
8
right_labelLayer
10
12.1293228
20
1.7702442
40
0.0286202
50
8.4912009
51
22.6602758
0
ARC
8
right_labelLayer
10
12.1379452
20
1.7738292
40
0.0192822
50
22.7007993
51
42.3425039
0
ARC
8
right_labelLayer
10
12.1389145
20
1.774266
40
0.0182745
50
43.3774176
51
71.5401096
0
ARC
8
right_labelLayer
10
12.1352866
20
1.7641269
40
0.0290416
50
71.0847469
51
84.3700044
0
ARC
8
right_labelLayer
10
12.1336582
20
1.7502647
40
0.0429976
50
84.0228079
51
90.1510162
0
ARC
8
right_labelLayer
10
12.1331956
20
1.7442031
40
0.0490604
50
89.592052
51
100.3588078
0
ARC
8
right_labelLayer
10
12.1297226
20
1.7624601
40
0.0304767
50
100.1077073
51
118.0847862
0
ARC
8
right_labelLayer
10
12.1261881
20
1.7693942
40
0.0226957
50
118.4535335
51
139.6696741
0
ARC
8
right_labelLayer
10
12.1297365
20
1.7669695
40
0.0269736
50
140.6215181
51
160.5050814
0
ARC
8
right_labelLayer
10
12.1484358
20
1.7600471
40
0.0469119
50
160.1568006
51
171.5303738
0
ARC
8
right_labelLayer
10
12.1786944
20
1.7552551
40
0.0775467
50
171.3212357
51
178.3405989
0
ARC
8
right_labelLayer
10
12.2054502
20
1.7540522
40
0.1043271
50
178.1057355
51
180.0262079
0
ARC
8
right_labelLayer
10
11.955148
20
1.8038307
40
0.1459751
50
357.8695274
51
0.0682091
0
ARC
8
right_labelLayer
10
12.0046536
20
1.8019519
40
0.0964339
50
354.985536
51
357.8915724
0
ARC
8
right_labelLayer
10
12.0374234
20
1.799107
40
0.0635408
50
351.9736908
51
354.9582134
0
ARC
8
right_labelLayer
10
12.1287765
20
1.7730589
40
0.0323877
50
119.8311834
51
147.9726056
0
ARC
8
right_labelLayer
10
12.132708
20
1.7670158
40
0.0395879
50
116.6660154
51
120.4166001
0
ARC
8
right_labelLayer
10
12.1334308
20
1.7651098
40
0.0416161
50
96.6647632
51
116.3775706
0
ARC
8
right_labelLayer
10
12.1350104
20
1.7542241
40
0.0526126
50
89.894387
51
96.9975357
0
ARC
8
right_labelLayer
10
12.1355146
20
1.7410818
40
0.0657559
50
80.6852624
51
90.3547698
0
ARC
8
right_labelLayer
10
12.1396093
20
1.765158
40
0.0413346
50
65.6015964
51
80.8847039
0
ARC
8
right_labelLayer
10
12.1445263
20
1.7762306
40
0.02922
50
46.7406796
51
65.413341
0
ARC
8
right_labelLayer
10
12.1448597
20
1.7772857
40
0.0282272
50
19.221271
51
45.7657631
0
ARC
8
right_labelLayer
10
12.1285731
20
1.7712501
40
0.045594
50
6.475347
51
19.645149
0
ARC
8
right_labelLayer
10
12.1042967
20
1.7681245
40
0.070069
50
359.7932108
51
6.7761496
0
LINE
8
right_labelLayer
10
12.2568848
20
1.7114263
11
12.2568848
21
1.699024
0
LINE
8
right_labelLayer
10
12.2088379
20
1.7288091
11
12.2088379
21
1.792481
0
LINE
8
right_labelLayer
10
12.2088379
20
1.792481
11
12.1935058
21
1.792481
0
LINE
8
right_labelLayer
10
12.1935058
20
1.792481
11
12.1935058
21
1.8002935
0
LINE
8
right_labelLayer
10
12.1935058
20
1.8002935
11
12.2088379
21
1.8070318
0
LINE
8
right_labelLayer
10
12.2088379
20
1.8070318
11
12.2156738
21
1.8298833
0
LINE
8
right_labelLayer
10
12.2156738
20
1.8298833
11
12.2250488
21
1.8298833
0
LINE
8
right_labelLayer
10
12.2250488
20
1.8298833
11
12.2250488
21
1.8050787
0
LINE
8
right_labelLayer
10
12.2250488
20
1.8050787
11
12.2561035
21
1.8050787
0
LINE
8
right_labelLayer
10
12.2561035
20
1.8050787
11
12.2561035
21
1.792481
0
LINE
8
right_labelLayer
10
12.2561035
20
1.792481
11
12.2250488
21
1.792481
0
LINE
8
right_labelLayer
10
12.2250488
20
1.792481
11
12.2250488
21
1.7294927
0
ARC
8
right_labelLayer
10
12.2423488
20
1.7627027
40
0.0532296
50
269.8788731
51
278.3028347
0
ARC
8
right_labelLayer
10
12.2426559
20
1.7599253
40
0.050437
50
278.4132993
51
278.9898015
0
ARC
8
right_labelLayer
10
12.2368853
20
1.7966793
40
0.0876411
50
278.9614299
51
280.5138206
0
ARC
8
right_labelLayer
10
12.2424962
20
1.7665679
40
0.0570115
50
280.4914806
51
282.6189076
0
ARC
8
right_labelLayer
10
12.2476051
20
1.7438436
40
0.0337201
50
282.5832544
51
285.5897649
0
ARC
8
right_labelLayer
10
12.2496701
20
1.7361518
40
0.0257564
50
285.7634204
51
286.2666469
0
ARC
8
right_labelLayer
10
12.2500643
20
1.713451
40
0.015958
50
287.9926374
51
295.3027503
0
ARC
8
right_labelLayer
10
12.2462178
20
1.7250917
40
0.0282177
50
283.3099468
51
288.1197241
0
ARC
8
right_labelLayer
10
12.2421435
20
1.7420963
40
0.0457034
50
280.0118446
51
283.3727133
0
ARC
8
right_labelLayer
10
12.2397832
20
1.7547689
40
0.0585934
50
279.170217
51
280.1304458
0
ARC
8
right_labelLayer
10
12.2377686
20
1.7662818
40
0.0702804
50
275.5288654
51
279.2958166
0
ARC
8
right_labelLayer
10
12.2396582
20
1.7465531
40
0.0504612
50
270.8898403
51
275.5515747
0
ARC
8
right_labelLayer
10
12.2398746
20
1.7383833
40
0.0422891
50
270.024288
51
270.7684809
0
ARC
8
right_labelLayer
10
12.2392383
20
1.7384305
40
0.0423412
50
253.7851799
51
270.8853848
0
ARC
8
right_labelLayer
10
12.2342219
20
1.7213225
40
0.0245131
50
190.3818247
51
253.8777273
0
ARC
8
right_labelLayer
10
12.2597907
20
1.7282363
40
0.0509561
50
179.355866
51
192.8482942
0
ARC
8
right_labelLayer
10
12.2576969
20
1.7292895
40
0.0326487
50
179.6433879
51
189.7506728
0
ARC
8
right_labelLayer
10
12.2461687
20
1.7272333
40
0.020939
50
189.5479354
51
205.7867018
0
ARC
8
right_labelLayer
10
12.2414296
20
1.7250475
40
0.0157212
50
206.1273676
51
221.4092964
0
ARC
8
right_labelLayer
10
12.2409008
20
1.7246463
40
0.0150593
50
221.5951536
51
262.3514846
0
ARC
8
right_labelLayer
10
12.2421652
20
1.7311453
40
0.0216723
50
261.3252509
51
270.1880438
0
LINE
8
bottom_outsideCutPath
10
16.268
20
7.957
11
16.268
21
7.22
0
LINE
8
bottom_outsideCutPath
10
16.268
20
7.22
11
16.15
21
7.22
0
LINE
8
bottom_outsideCutPath
10
16.15
20
7.22
11
16.15
21
6.74
0
LINE
8
bottom_outsideCutPath
10
16.15
20
6.74
11
16.268
21
6.74
0
LINE
8
bottom_outsideCutPath
10
16.268
20
6.74
11
16.268
21
6.26
0
LINE
8
bottom_outsideCutPath
10
16.268
20
6.26
11
16.15
21
6.26
0
LINE
8
bottom_outsideCutPath
10
16.15
20
6.26
11
16.15
21
5.78
0
LINE
8
bottom_outsideCutPath
10
16.15
20
5.78
11
16.268
21
5.78
0
LINE
8
bottom_outsideCutPath
10
16.268
20
5.78
11
16.268
21
5.3
0
LINE
8
bottom_outsideCutPath
10
16.268
20
5.3
11
16.15
21
5.3
0
LINE
8
bottom_outsideCutPath
10
16.15
20
5.3
11
16.15
21
4.82
0
LINE
8
bottom_outsideCutPath
10
16.15
20
4.82
11
16.268
21
4.82
0
LINE
8
bottom_outsideCutPath
10
16.268
20
4.82
11
16.268
21
4.34
0
LINE
8
bottom_outsideCutPath
10
16.268
20
4.34
11
16.15
21
4.34
0
LINE
8
bottom_outsideCutPath
10
16.15
20
4.34
11
16.15
21
3.86
0
LINE
8
bottom_outsideCutPath
10
16.15
20
3.86
11
16.268
21
3.86
0
LINE
8
bottom_outsideCutPath
10
16.268
20
3.86
11
16.268
21
3.38
0
LINE
8
bottom_outsideCutPath
10
16.268
20
3.38
11
16.15
21
3.38
0
LINE
8
bottom_outsideCutPath
10
16.15
20
3.38
11
16.15
21
2.9
0
LINE
8
bottom_outsideCutPath
10
16.15
20
2.9
11
16.268
21
2.9
0
LINE
8
bottom_outsideCutPath
10
16.268
20
2.9
11
16.268
21
2.42
0
LINE
8
bottom_outsideCutPath
10
16.268
20
2.42
11
16.15
21
2.42
0
LINE
8
bottom_outsideCutPath
10
16.15
20
2.42
11
16.15
21
1.94
0
LINE
8
bottom_outsideCutPath
10
16.15
20
1.94
11
16.268
21
1.94
0
LINE
8
bottom_outsideCutPath
10
16.268
20
1.94
11
16.268
21
1.46
0
LINE
8
bottom_outsideCutPath
10
16.268
20
1.46
11
16.15
21
1.46
0
LINE
8
bottom_outsideCutPath
10
16.15
20
1.46
11
16.15
21
0.98
0
LINE
8
bottom_outsideCutPath
10
16.15
20
0.98
11
16.268
21
0.98
0
LINE
8
bottom_outsideCutPath
10
16.268
20
0.98
11
16.268
21
0.5
0
LINE
8
bottom_outsideCutPath
10
16.268
20
0.5
11
16.268
21
0.243
0
LINE
8
bottom_outsideCutPath
10
16.268
20
0.243
11
17.005
21
0.243
0
LINE
8
bottom_outsideCutPath
10
17.005
20
0.243
11
17.005
21
0.125
0
LINE
8
bottom_outsideCutPath
10
17.005
20
0.125
11
17.485
21
0.125
0
LINE
8
bottom_outsideCutPath
10
17.485
20
0.125
11
17.485
21
0.243
0
LINE
8
bottom_outsideCutPath
10
17.485
20
0.243
11
17.965
21
0.243
0
LINE
8
bottom_outsideCutPath
10
17.965
20
0.243
11
17.965
21
0.125
0
LINE
8
bottom_outsideCutPath
10
17.965
20
0.125
11
18.445
21
0.125
0
LINE
8
bottom_outsideCutPath
10
18.445
20
0.125
11
18.445
21
0.243
0
LINE
8
bottom_outsideCutPath
10
18.445
20
0.243
11
18.925
21
0.243
0
LINE
8
bottom_outsideCutPath
10
18.925
20
0.243
11
18.925
21
0.125
0
LINE
8
bottom_outsideCutPath
10
18.925
20
0.125
11
19.405
21
0.125
0
LINE
8
bottom_outsideCutPath
10
19.405
20
0.125
11
19.405
21
0.243
0
LINE
8
bottom_outsideCutPath
10
19.405
20
0.243
11
19.885
21
0.243
0
LINE
8
bottom_outsideCutPath
10
19.885
20
0.243
11
19.885
21
0.125
0
LINE
8
bottom_outsideCutPath
10
19.885
20
0.125
11
20.365
21
0.125
0
LINE
8
bottom_outsideCutPath
10
20.365
20
0.125
11
20.365
21
0.243
0
LINE
8
bottom_outsideCutPath
10
20.365
20
0.243
11
20.845
21
0.243
0
LINE
8
bottom_outsideCutPath
10
20.845
20
0.243
11
20.845
21
0.125
0
LINE
8
bottom_outsideCutPath
10
20.845
20
0.125
11
21.325
21
0.125
0
LINE
8
bottom_outsideCutPath
10
21.325
20
0.125
11
21.325
21
0.243
0
LINE
8
bottom_outsideCutPath
10
21.325
20
0.243
11
21.805
21
0.243
0
LINE
8
bottom_outsideCutPath
10
21.805
20
0.243
11
21.805
21
0.125
0
LINE
8
bottom_outsideCutPath
10
21.805
20
0.125
11
22.285
21
0.125
0
LINE
8
bottom_outsideCutPath
10
22.285
20
0.125
11
22.285
21
0.243
0
LINE
8
bottom_outsideCutPath
10
22.285
20
0.243
11
22.765
21
0.243
0
LINE
8
bottom_outsideCutPath
10
22.765
20
0.243
11
22.765
21
0.125
0
LINE
8
bottom_outsideCutPath
10
22.765
20
0.125
11
23.245
21
0.125
0
LINE
8
bottom_outsideCutPath
10
23.245
20
0.125
11
23.245
21
0.243
0
LINE
8
bottom_outsideCutPath
10
23.245
20
0.243
11
23.725
21
0.243
0
LINE
8
bottom_outsideCutPath
10
23.725
20
0.243
11
23.982
21
0.243
0
LINE
8
bottom_outsideCutPath
10
23.982
20
0.243
11
23.982
21
0.98
0
LINE
8
bottom_outsideCutPath
10
23.982
20
0.98
11
24.1
21
0.98
0
LINE
8
bottom_outsideCutPath
10
24.1
20
0.98
11
24.1
21
1.46
0
LINE
8
bottom_outsideCutPath
10
24.1
20
1.46
11
23.982
21
1.46
0
LINE
8
bottom_outsideCutPath
10
23.982
20
1.46
11
23.982
21
1.94
0
LINE
8
bottom_outsideCutPath
10
23.982
20
1.94
11
24.1
21
1.94
0
LINE
8
bottom_outsideCutPath
10
24.1
20
1.94
11
24.1
21
2.42
0
LINE
8
bottom_outsideCutPath
10
24.1
20
2.42
11
23.982
21
2.42
0
LINE
8
bottom_outsideCutPath
10
23.982
20
2.42
11
23.982
21
2.9
0
LINE
8
bottom_outsideCutPath
10
23.982
20
2.9
11
24.1
21
2.9
0
LINE
8
bottom_outsideCutPath
10
24.1
20
2.9
11
24.1
21
3.38
0
LINE
8
bottom_outsideCutPath
10
24.1
20
3.38
11
23.982
21
3.38
0
LINE
8
bottom_outsideCutPath
10
23.982
20
3.38
11
23.982
21
3.86
0
LINE
8
bottom_outsideCutPath
10
23.982
20
3.86
11
24.1
21
3.86
0
LINE
8
bottom_outsideCutPath
10
24.1
20
3.86
11
24.1
21
4.34
0
LINE
8
bottom_outsideCutPath
10
24.1
20
4.34
11
23.982
21
4.34
0
LINE
8
bottom_outsideCutPath
10
23.982
20
4.34
11
23.982
21
4.82
0
LINE
8
bottom_outsideCutPath
10
23.982
20
4.82
11
24.1
21
4.82
0
LINE
8
bottom_outsideCutPath
10
24.1
20
4.82
11
24.1
21
5.3
0
LINE
8
bottom_outsideCutPath
10
24.1
20
5.3
11
23.982
21
5.3
0
LINE
8
bottom_outsideCutPath
10
23.982
20
5.3
11
23.982
21
5.78
0
LINE
8
bottom_outsideCutPath
10
23.982
20
5.78
11
24.1
21
5.78
0
LINE
8
bottom_outsideCutPath
10
24.1
20
5.78
11
24.1
21
6.26
0
LINE
8
bottom_outsideCutPath
10
24.1
20
6.26
11
23.982
21
6.26
0
LINE
8
bottom_outsideCutPath
10
23.982
20
6.26
11
23.982
21
6.74
0
LINE
8
bottom_outsideCutPath
10
23.982
20
6.74
11
24.1
21
6.74
0
LINE
8
bottom_outsideCutPath
10
24.1
20
6.74
11
24.1
21
7.22
0
LINE
8
bottom_outsideCutPath
10
24.1
20
7.22
11
23.982
21
7.22
0
LINE
8
bottom_outsideCutPath
10
23.982
20
7.22
11
23.982
21
7.7
0
LINE
8
bottom_outsideCutPath
10
23.982
20
7.7
11
23.982
21
7.957
0
LINE
8
bottom_outsideCutPath
10
23.982
20
7.957
11
23.245
21
7.957
0
LINE
8
bottom_outsideCutPath
10
23.245
20
7.957
11
23.245
21
8.075
0
LINE
8
bottom_outsideCutPath
10
23.245
20
8.075
11
22.765
21
8.075
0
LINE
8
bottom_outsideCutPath
10
22.765
20
8.075
11
22.765
21
7.957
0
LINE
8
bottom_outsideCutPath
10
22.765
20
7.957
11
22.285
21
7.957
0
LINE
8
bottom_outsideCutPath
10
22.285
20
7.957
11
22.285
21
8.075
0
LINE
8
bottom_outsideCutPath
10
22.285
20
8.075
11
21.805
21
8.075
0
LINE
8
bottom_outsideCutPath
10
21.805
20
8.075
11
21.805
21
7.957
0
LINE
8
bottom_outsideCutPath
10
21.805
20
7.957
11
21.325
21
7.957
0
LINE
8
bottom_outsideCutPath
10
21.325
20
7.957
11
21.325
21
8.075
0
LINE
8
bottom_outsideCutPath
10
21.325
20
8.075
11
20.845
21
8.075
0
LINE
8
bottom_outsideCutPath
10
20.845
20
8.075
11
20.845
21
7.957
0
LINE
8
bottom_outsideCutPath
10
20.845
20
7.957
11
20.365
21
7.957
0
LINE
8
bottom_outsideCutPath
10
20.365
20
7.957
11
20.365
21
8.075
0
LINE
8
bottom_outsideCutPath
10
20.365
20
8.075
11
19.885
21
8.075
0
LINE
8
bottom_outsideCutPath
10
19.885
20
8.075
11
19.885
21
7.957
0
LINE
8
bottom_outsideCutPath
10
19.885
20
7.957
11
19.405
21
7.957
0
LINE
8
bottom_outsideCutPath
10
19.405
20
7.957
11
19.405
21
8.075
0
LINE
8
bottom_outsideCutPath
10
19.405
20
8.075
11
18.925
21
8.075
0
LINE
8
bottom_outsideCutPath
10
18.925
20
8.075
11
18.925
21
7.957
0
LINE
8
bottom_outsideCutPath
10
18.925
20
7.957
11
18.445
21
7.957
0
LINE
8
bottom_outsideCutPath
10
18.445
20
7.957
11
18.445
21
8.075
0
LINE
8
bottom_outsideCutPath
10
18.445
20
8.075
11
17.965
21
8.075
0
LINE
8
bottom_outsideCutPath
10
17.965
20
8.075
11
17.965
21
7.957
0
LINE
8
bottom_outsideCutPath
10
17.965
20
7.957
11
17.485
21
7.957
0
LINE
8
bottom_outsideCutPath
10
17.485
20
7.957
11
17.485
21
8.075
0
LINE
8
bottom_outsideCutPath
10
17.485
20
8.075
11
17.005
21
8.075
0
LINE
8
bottom_outsideCutPath
10
17.005
20
8.075
11
17.005
21
7.957
0
LINE
8
bottom_outsideCutPath
10
17.005
20
7.957
11
16.525
21
7.957
0
LINE
8
bottom_outsideCutPath
10
16.525
20
7.957
11
16.268
21
7.957
0
LINE
8
bottom_labelLayer
10
17.6382922
20
3.6132379
11
17.6289757
21
3.6132379
0
LINE
8
bottom_labelLayer
10
17.6289757
20
3.6132379
11
17.6018029
21
3.5037701
0
LINE
8
bottom_labelLayer
10
17.6018029
20
3.5037701
11
17.5094152
21
3.5037701
0
LINE
8
bottom_labelLayer
10
17.5094152
20
3.5037701
11
17.5094152
21
4.7117974
0
LINE
8
bottom_labelLayer
10
17.5094152
20
4.7117974
11
17.6382922
21
4.7117974
0
LINE
8
bottom_labelLayer
10
17.6382922
20
4.7117974
11
17.6382922
21
4.4183306
0
LINE
8
bottom_labelLayer
10
17.6320812
20
4.2413189
11
17.6382922
21
4.2413189
0
ARC
8
bottom_labelLayer
10
17.9092286
20
3.9747709
40
0.3938912
50
74.2392782
51
90.5623857
0
ARC
8
bottom_labelLayer
10
17.9352739
20
4.0703183
40
0.2948629
50
38.5631337
51
74.067004
0
ARC
8
bottom_labelLayer
10
17.8682505
20
4.0182032
40
0.3797587
50
16.4707825
51
38.4075996
0
ARC
8
bottom_labelLayer
10
17.6751498
20
3.9576525
40
0.5821127
50
5.1338215
51
16.7972525
0
ARC
8
bottom_labelLayer
10
17.431366
20
3.9317561
40
0.8272455
50
359.8780731
51
5.4093577
0
ARC
8
bottom_labelLayer
10
17.5029777
20
3.9255388
40
0.755645
50
350.656312
51
0.3379419
0
ARC
8
bottom_labelLayer
10
17.7664063
20
3.8807336
40
0.4884393
50
335.8307492
51
350.8253941
0
ARC
8
bottom_labelLayer
10
17.8822913
20
3.8307179
40
0.3622391
50
321.3160514
51
335.543533
0
ARC
8
bottom_labelLayer
10
17.9265912
20
3.7946194
40
0.3050966
50
274.0640149
51
321.4081024
0
ARC
8
bottom_labelLayer
10
17.9059533
20
3.9253713
40
0.4371289
50
269.922562
51
275.5478601
0
ARC
8
bottom_labelLayer
10
17.9031892
20
3.8791462
40
0.3909095
50
255.7754559
51
270.3185436
0
ARC
8
bottom_labelLayer
10
17.8920335
20
3.8295856
40
0.3401301
50
245.980178
51
255.5455924
0
ARC
8
bottom_labelLayer
10
17.8704266
20
3.7793379
40
0.2854393
50
215.5850018
51
245.8361355
0
ARC
8
bottom_labelLayer
10
14.9513165
20
4.4160647
40
2.6869766
50
358.1121962
51
0.0483184
0
ARC
8
bottom_labelLayer
10
15.6989902
20
4.3909636
40
1.938882
50
355.7238611
51
358.1257096
0
ARC
8
bottom_labelLayer
10
16.0221145
20
4.3688622
40
1.6150107
50
355.4704264
51
355.6510114
0
ARC
8
bottom_labelLayer
10
17.8786418
20
4.0737165
40
0.2930162
50
95.1834626
51
145.1108745
0
ARC
8
bottom_labelLayer
10
17.9043987
20
3.9284668
40
0.4401774
50
89.8745516
51
96.8145202
0
ARC
8
bottom_labelLayer
10
17.8840317
20
3.8985744
40
0.3621638
50
89.5731613
51
100.7321859
0
ARC
8
bottom_labelLayer
10
17.8572225
20
4.0340333
40
0.2240846
50
100.4470364
51
119.6700652
0
ARC
8
bottom_labelLayer
10
17.8323639
20
4.0805112
40
0.171401
50
120.1405298
51
142.4246454
0
ARC
8
bottom_labelLayer
10
17.8734888
20
4.0533069
40
0.220612
50
143.3381795
51
161.2561617
0
ARC
8
bottom_labelLayer
10
18.0454947
20
3.9922387
40
0.4031272
50
160.8926721
51
171.2332871
0
ARC
8
bottom_labelLayer
10
18.3326659
20
3.9459154
40
0.6940064
50
171.0670233
51
177.84545
0
ARC
8
bottom_labelLayer
10
18.6311539
20
3.9307373
40
0.9928619
50
177.6177511
51
180.0427949
0
ARC
8
bottom_labelLayer
10
18.4903934
20
3.9266665
40
0.8521077
50
179.7761471
51
185.707518
0
ARC
8
bottom_labelLayer
10
18.1544572
20
3.8920536
40
0.5143956
50
185.5925263
51
194.2049475
0
ARC
8
bottom_labelLayer
10
17.9392279
20
3.8361943
40
0.2920428
50
193.9428289
51
208.0219241
0
ARC
8
bottom_labelLayer
10
17.8521522
20
3.7918958
40
0.1943716
50
208.5536365
51
217.5607905
0
ARC
8
bottom_labelLayer
10
17.8450629
20
3.7889474
40
0.1869651
50
218.1689241
51
253.8046884
0
ARC
8
bottom_labelLayer
10
17.8797429
20
3.8958721
40
0.2993394
50
253.1383698
51
266.8481195
0
ARC
8
bottom_labelLayer
10
17.889469
20
4.0106221
40
0.4144645
50
266.3778095
51
270.0506183
0
ARC
8
bottom_labelLayer
10
17.8925836
20
3.8530584
40
0.2569153
50
269.3870403
51
285.8631877
0
ARC
8
bottom_labelLayer
10
17.9116708
20
3.784075
40
0.1853425
50
286.01641
51
326.8496726
0
ARC
8
bottom_labelLayer
10
17.8195477
20
3.8451036
40
0.2958453
50
326.7104099
51
343.6661262
0
ARC
8
bottom_labelLayer
10
17.6471018
20
3.8977982
40
0.476155
50
343.4170261
51
353.6369474
0
ARC
8
bottom_labelLayer
10
17.3866009
20
3.9287076
40
0.738479
50
353.4935548
51
0.2204091
0
ARC
8
bottom_labelLayer
10
17.3636806
20
3.9346321
40
0.7614
50
359.7679503
51
6.3095338
0
ARC
8
bottom_labelLayer
10
17.6504627
20
3.9675411
40
0.4727398
50
6.1650117
51
16.0395409
0
ARC
8
bottom_labelLayer
10
17.8352287
20
4.0219905
40
0.280125
50
15.7779785
51
32.0149168
0
ARC
8
bottom_labelLayer
10
17.8930365
20
4.0551116
40
0.2135656
50
32.7024323
51
35.5262703
0
ARC
8
bottom_labelLayer
10
17.9139188
20
4.0699625
40
0.1879412
50
35.540834
51
79.8011197
0
ARC
8
bottom_labelLayer
10
17.8886793
20
3.9626656
40
0.298069
50
78.6780547
51
90.3747714
0
ARC
8
bottom_labelLayer
10
18.5525228
20
3.9255069
40
0.6656917
50
349.1760982
51
0.3863484
0
ARC
8
bottom_labelLayer
10
18.7766355
20
3.8808288
40
0.4371797
50
330.2507864
51
349.4115919
0
ARC
8
bottom_labelLayer
10
18.8456165
20
3.8449753
40
0.3595127
50
318.143889
51
329.756665
0
ARC
8
bottom_labelLayer
10
18.8580622
20
3.8350007
40
0.3435884
50
278.895908
51
317.9979231
0
ARC
8
bottom_labelLayer
10
18.8259871
20
3.9886741
40
0.500436
50
269.7501543
51
279.8033295
0
ARC
8
bottom_labelLayer
10
18.8207838
20
3.9020899
40
0.4138582
50
253.5436188
51
270.4182452
0
ARC
8
bottom_labelLayer
10
18.8070092
20
3.8488034
40
0.3588574
50
238.8115163
51
253.2426575
0
ARC
8
bottom_labelLayer
10
18.8025613
20
3.8398595
40
0.348904
50
207.7947185
51
238.675778
0
ARC
8
bottom_labelLayer
10
18.8664519
20
3.8789819
40
0.4236935
50
205.6565852
51
208.4460133
0
ARC
8
bottom_labelLayer
10
18.9155026
20
3.8994088
40
0.4767607
50
188.9102209
51
205.3170959
0
ARC
8
bottom_labelLayer
10
19.0811123
20
3.9274579
40
0.6447196
50
179.7744665
51
189.0932776
0
ARC
8
bottom_labelLayer
10
19.1055501
20
3.934527
40
0.6691678
50
169.2443461
51
180.3879877
0
ARC
8
bottom_labelLayer
10
18.8783016
20
3.9794451
40
0.4375324
50
150.7111959
51
169.4695411
0
ARC
8
bottom_labelLayer
10
18.8057633
20
4.0166947
40
0.3560567
50
138.1760494
51
150.2286224
0
ARC
8
bottom_labelLayer
10
18.7936904
20
4.0259595
40
0.3408837
50
99.1758499
51
137.9833219
0
ARC
8
bottom_labelLayer
10
18.8269026
20
3.869665
40
0.5005363
50
89.7325065
51
100.076034
0
ARC
8
bottom_labelLayer
10
18.8335423
20
3.9371586
40
0.4330586
50
73.5223251
51
90.5693045
0
ARC
8
bottom_labelLayer
10
18.8589378
20
4.0294292
40
0.3373791
50
41.1445986
51
73.2133622
0
ARC
8
bottom_labelLayer
10
18.8104597
20
3.9877628
40
0.4013008
50
13.5013773
51
41.0703762
0
ARC
8
bottom_labelLayer
10
18.6231611
20
3.9387485
40
0.5948796
50
1.1276881
51
13.8800347
0
ARC
8
bottom_labelLayer
10
18.4621239
20
3.9301099
40
0.7560754
50
359.9913402
51
1.5420284
0
ARC
8
bottom_labelLayer
10
19.2225564
20
3.9266465
40
0.6526322
50
179.7059677
51
187.9160605
0
ARC
8
bottom_labelLayer
10
18.9832025
20
3.8922647
40
0.4108254
50
187.7640629
51
200.0974433
0
ARC
8
bottom_labelLayer
10
18.8513297
20
3.8439491
40
0.2703802
50
200.0847771
51
216.9130227
0
ARC
8
bottom_labelLayer
10
18.8031722
20
3.8095626
40
0.2112283
50
217.300848
51
261.7099912
0
ARC
8
bottom_labelLayer
10
18.8255277
20
3.9162369
40
0.3200823
50
260.503203
51
270.2474856
0
ARC
8
bottom_labelLayer
10
18.8297934
20
3.895491
40
0.2993471
50
269.4481588
51
284.725614
0
ARC
8
bottom_labelLayer
10
18.8534921
20
3.8076035
40
0.2083232
50
284.5660523
51
322.6335611
0
ARC
8
bottom_labelLayer
10
18.7980788
20
3.8476367
40
0.2766666
50
323.0091636
51
342.6388147
0
ARC
8
bottom_labelLayer
10
18.6396128
20
3.8994273
40
0.4433725
50
342.3615215
51
353.7537563
0
ARC
8
bottom_labelLayer
10
18.4057736
20
3.9276108
40
0.6788948
50
353.5365145
51
0.2012728
0
ARC
8
bottom_labelLayer
10
18.4416109
20
3.9332765
40
0.6430616
50
359.7076833
51
7.8971314
0
ARC
8
bottom_labelLayer
10
18.6771281
20
3.9670389
40
0.4051407
50
7.7439213
51
20.0688667
0
ARC
8
bottom_labelLayer
10
18.8083581
20
4.0151933
40
0.2653546
50
20.0259053
51
37.4350492
0
ARC
8
bottom_labelLayer
10
18.8519017
20
4.046091
40
0.2120065
50
37.9578162
51
80.4006564
0
ARC
8
bottom_labelLayer
10
18.8271577
20
3.9356839
40
0.3250493
50
79.3453931
51
90.3172986
0
ARC
8
bottom_labelLayer
10
18.8225771
20
3.9540303
40
0.3067104
50
89.4805863
51
103.8805777
0
ARC
8
bottom_labelLayer
10
18.7968057
20
4.0521672
40
0.2052621
50
103.4685972
51
142.3119351
0
ARC
8
bottom_labelLayer
10
18.8469081
20
4.0169311
40
0.266467
50
142.9025125
51
162.3748546
0
ARC
8
bottom_labelLayer
10
19.0047779
20
3.9643212
40
0.4328619
50
162.0652267
51
173.1674588
0
ARC
8
bottom_labelLayer
10
19.2509755
20
3.9329227
40
0.681049
50
173.0088046
51
180.2462506
0
LINE
8
bottom_labelLayer
10
19.8354113
20
3.6101324
11
19.8354113
21
3.5115338
0
LINE
8
bottom_labelLayer
10
19.4534386
20
3.7483257
11
19.4534386
21
4.2545172
0
LINE
8
bottom_labelLayer
10
19.4534386
20
4.2545172
11
19.331549
21
4.2545172
0
LINE
8
bottom_labelLayer
10
19.331549
20
4.2545172
11
19.331549
21
4.3166265
0
LINE
8
bottom_labelLayer
10
19.331549
20
4.3166265
11
19.4534386
21
4.3701959
0
LINE
8
bottom_labelLayer
10
19.4534386
20
4.3701959
11
19.5077843
21
4.5518658
0
LINE
8
bottom_labelLayer
10
19.5077843
20
4.5518658
11
19.5823156
21
4.5518658
0
LINE
8
bottom_labelLayer
10
19.5823156
20
4.5518658
11
19.5823156
21
4.3546685
0
LINE
8
bottom_labelLayer
10
19.5823156
20
4.3546685
11
19.8292004
21
4.3546685
0
LINE
8
bottom_labelLayer
10
19.8292004
20
4.3546685
11
19.8292004
21
4.2545172
0
LINE
8
bottom_labelLayer
10
19.8292004
20
4.2545172
11
19.5823156
21
4.2545172
0
LINE
8
bottom_labelLayer
10
19.5823156
20
4.2545172
11
19.5823156
21
3.7537603
0
ARC
8
bottom_labelLayer
10
19.7198401
20
4.0178624
40
0.4232583
50
269.8803513
51
278.3026559
0
ARC
8
bottom_labelLayer
10
19.7234296
20
3.9878587
40
0.3930514
50
278.4164655
51
279.0045882
0
ARC
8
bottom_labelLayer
10
19.6764137
20
4.2881385
40
0.6969893
50
278.9584378
51
280.5102901
0
ARC
8
bottom_labelLayer
10
19.7216671
20
4.0453366
40
0.4500062
50
280.4842967
51
282.6270218
0
ARC
8
bottom_labelLayer
10
19.7613249
20
3.8691519
40
0.2694134
50
282.5878841
51
285.5794529
0
ARC
8
bottom_labelLayer
10
19.7806273
20
3.7979724
40
0.1956658
50
285.7328353
51
286.2594609
0
ARC
8
bottom_labelLayer
10
19.7812097
20
3.6261813
40
0.1268143
50
287.9901557
51
295.3032522
0
ARC
8
bottom_labelLayer
10
19.7506728
20
3.7185678
40
0.2241161
50
283.3061828
51
288.1205566
0
ARC
8
bottom_labelLayer
10
19.7183624
20
3.8533291
40
0.3626962
50
280.0067933
51
283.3736434
0
ARC
8
bottom_labelLayer
10
19.6964545
20
3.9723689
40
0.4837328
50
279.1874956
51
280.1121607
0
ARC
8
bottom_labelLayer
10
19.6834798
20
4.0460975
40
0.5585881
50
275.5258971
51
279.2937933
0
ARC
8
bottom_labelLayer
10
19.6984277
20
3.8899365
40
0.4017135
50
270.8932233
51
275.5486106
0
ARC
8
bottom_labelLayer
10
19.7003206
20
3.8174226
40
0.3291797
50
270.0004918
51
270.7605517
0
ARC
8
bottom_labelLayer
10
19.6951234
20
3.8248142
40
0.3366117
50
253.7848893
51
270.8851462
0
ARC
8
bottom_labelLayer
10
19.6552437
20
3.6888075
40
0.1948793
50
190.3817488
51
253.8772527
0
ARC
8
bottom_labelLayer
10
19.8585128
20
3.7437663
40
0.4050997
50
179.3551105
51
192.8475729
0
ARC
8
bottom_labelLayer
10
19.8418389
20
3.7521383
40
0.2595284
50
179.6419149
51
189.7503417
0
ARC
8
bottom_labelLayer
10
19.7502127
20
3.7357968
40
0.1664593
50
189.547934
51
205.7872741
0
ARC
8
bottom_labelLayer
10
19.7125567
20
3.7184316
40
0.1250009
50
206.1290465
51
221.4088579
0
ARC
8
bottom_labelLayer
10
19.7083408
20
3.7152319
40
0.1197232
50
221.5948662
51
262.3506134
0
ARC
8
bottom_labelLayer
10
19.7183798
20
3.766841
40
0.172237
50
261.3259972
51
270.1917609
0
LINE
8
bottom_labelLayer
10
20.3967248
20
3.6101324
11
20.3967248
21
3.5115338
0
LINE
8
bottom_labelLayer
10
20.0147521
20
3.7483257
11
20.0147521
21
4.2545172
0
LINE
8
bottom_labelLayer
10
20.0147521
20
4.2545172
11
19.8928625
21
4.2545172
0
LINE
8
bottom_labelLayer
10
19.8928625
20
4.2545172
11
19.8928625
21
4.3166265
0
LINE
8
bottom_labelLayer
10
19.8928625
20
4.3166265
11
20.0147521
21
4.3701959
0
LINE
8
bottom_labelLayer
10
20.0147521
20
4.3701959
11
20.0690978
21
4.5518658
0
LINE
8
bottom_labelLayer
10
20.0690978
20
4.5518658
11
20.1436291
21
4.5518658
0
LINE
8
bottom_labelLayer
10
20.1436291
20
4.5518658
11
20.1436291
21
4.3546685
0
LINE
8
bottom_labelLayer
10
20.1436291
20
4.3546685
11
20.3905138
21
4.3546685
0
LINE
8
bottom_labelLayer
10
20.3905138
20
4.3546685
11
20.3905138
21
4.2545172
0
LINE
8
bottom_labelLayer
10
20.3905138
20
4.2545172
11
20.1436291
21
4.2545172
0
LINE
8
bottom_labelLayer
10
20.1436291
20
4.2545172
11
20.1436291
21
3.7537603
0
ARC
8
bottom_labelLayer
10
20.2811536
20
4.0178624
40
0.4232583
50
269.8803513
51
278.3026559
0
ARC
8
bottom_labelLayer
10
20.284743
20
3.9878587
40
0.3930514
50
278.4164655
51
279.0045882
0
ARC
8
bottom_labelLayer
10
20.2377272
20
4.2881385
40
0.6969893
50
278.9584378
51
280.5102901
0
ARC
8
bottom_labelLayer
10
20.2829806
20
4.0453366
40
0.4500062
50
280.4842967
51
282.6270218
0
ARC
8
bottom_labelLayer
10
20.3226384
20
3.8691519
40
0.2694134
50
282.5878841
51
285.5794529
0
ARC
8
bottom_labelLayer
10
20.3419407
20
3.7979724
40
0.1956658
50
285.7328353
51
286.2594609
0
ARC
8
bottom_labelLayer
10
20.3425232
20
3.6261813
40
0.1268143
50
287.9901557
51
295.3032522
0
ARC
8
bottom_labelLayer
10
20.3119862
20
3.7185678
40
0.2241161
50
283.3061828
51
288.1205566
0
ARC
8
bottom_labelLayer
10
20.2796758
20
3.8533291
40
0.3626962
50
280.0067933
51
283.3736434
0
ARC
8
bottom_labelLayer
10
20.257768
20
3.9723689
40
0.4837328
50
279.1874956
51
280.1121607
0
ARC
8
bottom_labelLayer
10
20.2447933
20
4.0460975
40
0.5585881
50
275.5258971
51
279.2937933
0
ARC
8
bottom_labelLayer
10
20.2597412
20
3.8899365
40
0.4017135
50
270.8932233
51
275.5486106
0
ARC
8
bottom_labelLayer
10
20.2616341
20
3.8174226
40
0.3291797
50
270.0004918
51
270.7605517
0
ARC
8
bottom_labelLayer
10
20.2564369
20
3.8248142
40
0.3366117
50
253.7848893
51
270.8851462
0
ARC
8
bottom_labelLayer
10
20.2165572
20
3.6888075
40
0.1948793
50
190.3817488
51
253.8772527
0
ARC
8
bottom_labelLayer
10
20.4198263
20
3.7437663
40
0.4050997
50
179.3551105
51
192.8475729
0
ARC
8
bottom_labelLayer
10
20.4031524
20
3.7521383
40
0.2595284
50
179.6419149
51
189.7503417
0
ARC
8
bottom_labelLayer
10
20.3115262
20
3.7357968
40
0.1664593
50
189.547934
51
205.7872741
0
ARC
8
bottom_labelLayer
10
20.2738701
20
3.7184316
40
0.1250009
50
206.1290465
51
221.4088579
0
ARC
8
bottom_labelLayer
10
20.2696542
20
3.7152319
40
0.1197232
50
221.5948662
51
262.3506134
0
ARC
8
bottom_labelLayer
10
20.2796932
20
3.766841
40
0.172237
50
261.3259972
51
270.1917609
0
ARC
8
bottom_labelLayer
10
20.635516
20
3.9255069
40
0.6656917
50
349.1760982
51
0.3863484
0
ARC
8
bottom_labelLayer
10
20.8596287
20
3.8808288
40
0.4371797
50
330.2507864
51
349.4115919
0
ARC
8
bottom_labelLayer
10
20.9286097
20
3.8449753
40
0.3595127
50
318.143889
51
329.756665
0
ARC
8
bottom_labelLayer
10
20.9410554
20
3.8350007
40
0.3435884
50
278.895908
51
317.9979231
0
ARC
8
bottom_labelLayer
10
20.9089802
20
3.9886741
40
0.500436
50
269.7501543
51
279.8033295
0
ARC
8
bottom_labelLayer
10
20.903777
20
3.9020899
40
0.4138582
50
253.5436188
51
270.4182452
0
ARC
8
bottom_labelLayer
10
20.8900024
20
3.8488034
40
0.3588574
50
238.8115163
51
253.2426575
0
ARC
8
bottom_labelLayer
10
20.8855545
20
3.8398595
40
0.348904
50
207.7947185
51
238.675778
0
ARC
8
bottom_labelLayer
10
20.949445
20
3.8789819
40
0.4236935
50
205.6565852
51
208.4460133
0
ARC
8
bottom_labelLayer
10
20.9984958
20
3.8994088
40
0.4767607
50
188.9102209
51
205.3170959
0
ARC
8
bottom_labelLayer
10
21.1641054
20
3.9274579
40
0.6447196
50
179.7744665
51
189.0932776
0
ARC
8
bottom_labelLayer
10
21.1885432
20
3.934527
40
0.6691678
50
169.2443461
51
180.3879877
0
ARC
8
bottom_labelLayer
10
20.9612948
20
3.9794451
40
0.4375324
50
150.7111959
51
169.4695411
0
ARC
8
bottom_labelLayer
10
20.8887565
20
4.0166947
40
0.3560567
50
138.1760494
51
150.2286224
0
ARC
8
bottom_labelLayer
10
20.8766836
20
4.0259595
40
0.3408837
50
99.1758499
51
137.9833219
0
ARC
8
bottom_labelLayer
10
20.9098958
20
3.869665
40
0.5005363
50
89.7325065
51
100.076034
0
ARC
8
bottom_labelLayer
10
20.9165355
20
3.9371586
40
0.4330586
50
73.5223251
51
90.5693045
0
ARC
8
bottom_labelLayer
10
20.941931
20
4.0294292
40
0.3373791
50
41.1445986
51
73.2133622
0
ARC
8
bottom_labelLayer
10
20.8934528
20
3.9877628
40
0.4013008
50
13.5013773
51
41.0703762
0
ARC
8
bottom_labelLayer
10
20.7061543
20
3.9387485
40
0.5948796
50
1.1276881
51
13.8800347
0
ARC
8
bottom_labelLayer
10
20.5451171
20
3.9301099
40
0.7560754
50
359.9913402
51
1.5420284
0
ARC
8
bottom_labelLayer
10
21.3055495
20
3.9266465
40
0.6526322
50
179.7059677
51
187.9160605
0
ARC
8
bottom_labelLayer
10
21.0661956
20
3.8922647
40
0.4108254
50
187.7640629
51
200.0974433
0
ARC
8
bottom_labelLayer
10
20.9343228
20
3.8439491
40
0.2703802
50
200.0847771
51
216.9130227
0
ARC
8
bottom_labelLayer
10
20.8861654
20
3.8095626
40
0.2112283
50
217.300848
51
261.7099912
0
ARC
8
bottom_labelLayer
10
20.9085209
20
3.9162369
40
0.3200823
50
260.503203
51
270.2474856
0
ARC
8
bottom_labelLayer
10
20.9127866
20
3.895491
40
0.2993471
50
269.4481588
51
284.725614
0
ARC
8
bottom_labelLayer
10
20.9364853
20
3.8076035
40
0.2083232
50
284.5660523
51
322.6335611
0
ARC
8
bottom_labelLayer
10
20.881072
20
3.8476367
40
0.2766666
50
323.0091636
51
342.6388147
0
ARC
8
bottom_labelLayer
10
20.722606
20
3.8994273
40
0.4433725
50
342.3615215
51
353.7537563
0
ARC
8
bottom_labelLayer
10
20.4887668
20
3.9276108
40
0.6788948
50
353.5365145
51
0.2012728
0
ARC
8
bottom_labelLayer
10
20.5246041
20
3.9332765
40
0.6430616
50
359.7076833
51
7.8971314
0
ARC
8
bottom_labelLayer
10
20.7601212
20
3.9670389
40
0.4051407
50
7.7439213
51
20.0688667
0
ARC
8
bottom_labelLayer
10
20.8913513
20
4.0151933
40
0.2653546
50
20.0259053
51
37.4350492
0
ARC
8
bottom_labelLayer
10
20.9348949
20
4.046091
40
0.2120065
50
37.9578162
51
80.4006564
0
ARC
8
bottom_labelLayer
10
20.9101508
20
3.9356839
40
0.3250493
50
79.3453931
51
90.3172986
0
ARC
8
bottom_labelLayer
10
20.9055703
20
3.9540303
40
0.3067104
50
89.4805863
51
103.8805777
0
ARC
8
bottom_labelLayer
10
20.8797989
20
4.0521672
40
0.2052621
50
103.4685972
51
142.3119351
0
ARC
8
bottom_labelLayer
10
20.9299013
20
4.0169311
40
0.266467
50
142.9025125
51
162.3748546
0
ARC
8
bottom_labelLayer
10
21.087771
20
3.9643212
40
0.4328619
50
162.0652267
51
173.1674588
0
ARC
8
bottom_labelLayer
10
21.3339687
20
3.9329227
40
0.681049
50
173.0088046
51
180.2462506
0
LINE
8
bottom_labelLayer
10
22.7405773
20
3.5037701
11
22.6117004
21
3.5037701
0
LINE
8
bottom_labelLayer
10
22.6117004
20
3.5037701
11
22.6117004
21
4.0573199
0
LINE
8
bottom_labelLayer
10
22.1978966
20
3.9789068
11
22.1978966
21
3.5037701
0
LINE
8
bottom_labelLayer
10
22.1978966
20
3.5037701
11
22.0690197
21
3.5037701
0
LINE
8
bottom_labelLayer
10
22.0690197
20
3.5037701
11
22.0690197
21
4.0573199
0
LINE
8
bottom_labelLayer
10
21.6559923
20
3.9501812
11
21.6559923
21
3.5037701
0
LINE
8
bottom_labelLayer
10
21.6559923
20
3.5037701
11
21.5271154
21
3.5037701
0
LINE
8
bottom_labelLayer
10
21.5271154
20
3.5037701
11
21.5271154
21
4.3546685
0
LINE
8
bottom_labelLayer
10
21.5271154
20
4.3546685
11
21.631925
21
4.3546685
0
LINE
8
bottom_labelLayer
10
21.631925
20
4.3546685
11
21.6528869
21
4.2382134
0
LINE
8
bottom_labelLayer
10
21.6528869
20
4.2382134
11
21.6590978
21
4.2382134
0
LINE
8
bottom_labelLayer
10
22.1715002
20
4.2257916
11
22.1777111
21
4.2257916
0
LINE
8
bottom_labelLayer
10
22.7405773
20
4.0588726
11
22.7405773
21
3.5037701
0
ARC
8
bottom_labelLayer
10
22.2314917
20
4.0593437
40
0.3802141
50
359.6950256
51
8.1469677
0
ARC
8
bottom_labelLayer
10
22.3715497
20
4.0800693
40
0.2386334
50
7.9864685
51
20.7951068
0
ARC
8
bottom_labelLayer
10
22.4489557
20
4.1097213
40
0.155743
50
20.7071473
51
40.0216777
0
ARC
8
bottom_labelLayer
10
22.4659383
20
4.1208324
40
0.1356138
50
41.0409047
51
73.1792943
0
ARC
8
bottom_labelLayer
10
22.4413668
20
4.0465169
40
0.2138697
50
72.6394752
51
86.2570219
0
ARC
8
bottom_labelLayer
10
22.4334938
20
3.961545
40
0.2991832
50
85.8147829
51
90.0685338
0
ARC
8
bottom_labelLayer
10
22.4306007
20
3.9291297
40
0.3316081
50
89.5619616
51
101.296444
0
ARC
8
bottom_labelLayer
10
22.4056262
20
4.0486857
40
0.2094789
50
101.0033944
51
121.7838889
0
ARC
8
bottom_labelLayer
10
22.3866379
20
4.0825869
40
0.1706687
50
122.3598199
51
140.2882853
0
ARC
8
bottom_labelLayer
10
22.4207969
20
4.0575412
40
0.2129638
50
140.9765443
51
161.1701895
0
ARC
8
bottom_labelLayer
10
22.5494949
20
4.01174
40
0.3495616
50
160.8732478
51
172.5273429
0
ARC
8
bottom_labelLayer
10
22.7645578
20
3.9820379
40
0.566663
50
172.3776695
51
180.1827936
0
ARC
8
bottom_labelLayer
10
22.9264105
20
3.9787976
40
0.7285141
50
179.8873442
51
179.991413
0
ARC
8
bottom_labelLayer
10
21.688811
20
4.0593437
40
0.3802141
50
359.6950256
51
8.1469677
0
ARC
8
bottom_labelLayer
10
21.8288691
20
4.0800693
40
0.2386334
50
7.9864685
51
20.7951068
0
ARC
8
bottom_labelLayer
10
21.906275
20
4.1097213
40
0.155743
50
20.7071473
51
40.0216777
0
ARC
8
bottom_labelLayer
10
21.9236107
20
4.1210767
40
0.135187
50
41.0610427
51
72.8993302
0
ARC
8
bottom_labelLayer
10
21.8985707
20
4.0465237
40
0.2138165
50
72.3605552
51
85.9558825
0
ARC
8
bottom_labelLayer
10
21.8900991
20
3.9589909
40
0.3017374
50
85.5234585
51
90.0798047
0
ARC
8
bottom_labelLayer
10
21.8872058
20
3.9406379
40
0.3200998
50
89.5573259
51
101.4829796
0
ARC
8
bottom_labelLayer
10
21.8626373
20
4.0557526
40
0.2024014
50
101.15459
51
123.0655812
0
ARC
8
bottom_labelLayer
10
21.8459345
20
4.0848461
40
0.1689171
50
123.7018234
51
142.3024367
0
ARC
8
bottom_labelLayer
10
21.885054
20
4.0583054
40
0.2161195
50
143.0768445
51
161.3914914
0
ARC
8
bottom_labelLayer
10
22.0427273
20
4.0026162
40
0.3833281
50
161.0231642
51
171.4470763
0
ARC
8
bottom_labelLayer
10
22.3038288
20
3.9617171
40
0.6476105
50
171.3044104
51
178.34996
0
ARC
8
bottom_labelLayer
10
22.553395
20
3.9505778
40
0.8974027
50
178.0978629
51
180.0253201
0
ARC
8
bottom_labelLayer
10
21.8774335
20
4.1098212
40
0.2532885
50
117.1210483
51
149.542357
0
ARC
8
bottom_labelLayer
10
21.9032829
20
4.0638757
40
0.3059729
50
93.8343148
51
117.5071597
0
ARC
8
bottom_labelLayer
10
21.9104228
20
4.0006142
40
0.3695817
50
89.9662078
51
94.2828961
0
ARC
8
bottom_labelLayer
10
21.9147007
20
3.9482716
40
0.4219438
50
77.55723
51
90.5513094
0
ARC
8
bottom_labelLayer
10
21.9538516
20
4.1166688
40
0.249074
50
52.7027967
51
78.0052785
0
ARC
8
bottom_labelLayer
10
21.9678008
20
4.1426227
40
0.2200238
50
22.2098032
51
51.4969668
0
ARC
8
bottom_labelLayer
10
22.4111769
20
4.091992
40
0.2690885
50
119.4041523
51
150.1829294
0
ARC
8
bottom_labelLayer
10
22.4411109
20
4.0464438
40
0.323487
50
118.2586249
51
120.0621946
0
ARC
8
bottom_labelLayer
10
22.4409345
20
4.0432947
40
0.3261815
50
95.8633879
51
117.9694335
0
ARC
8
bottom_labelLayer
10
22.4519767
20
3.9634432
40
0.4067532
50
89.9199437
51
96.2616159
0
ARC
8
bottom_labelLayer
10
22.4555181
20
3.9222084
40
0.4479973
50
79.9362833
51
90.3802266
0
ARC
8
bottom_labelLayer
10
22.4853716
20
4.0838939
40
0.2835851
50
62.9720464
51
80.1667706
0
ARC
8
bottom_labelLayer
10
22.5165718
20
4.1479022
40
0.2123932
50
44.2291522
51
62.6228712
0
ARC
8
bottom_labelLayer
10
22.5072923
20
4.1438043
40
0.2219291
50
19.5611975
51
43.3161385
0
ARC
8
bottom_labelLayer
10
22.3725043
20
4.0931774
40
0.3658973
50
7.5042631
51
19.9645947
0
ARC
8
bottom_labelLayer
10
22.1494636
20
4.0618569
40
0.5911212
50
359.7107416
51
7.6906653
0
ENDSEC
0
EOF