0
SECTION
2
HEADER
9
$INSUNITS
70
4
9
$ACADVER
1
AC1014
9
$HANDSEED
5
FFFF
0
ENDSEC
0
SECTION
2
TABLES
0
TABLE
2
VPORT
5
8
100
AcDbSymbolTable
0
ENDTAB
0
TABLE
2
LTYPE
5
5
100
AcDbSymbolTable
0
LTYPE
5
14
100
AcDbSymbolTableRecord
100
AcDbLinetypeTableRecord
2
BYBLOCK
70
0
0
LTYPE
5
15
100
AcDbSymbolTableRecord
100
AcDbLinetypeTableRecord
2
BYLAYER
70
0
0
ENDTAB
0
TABLE
2
LAYER
5
2
100
AcDbSymbolTable
70
2
0
LAYER
5
50
100
AcDbSymbolTableRecord
100
AcDbLayerTableRecord
2
0
70
0
6
CONTINUOUS
0
ENDTAB
0
TABLE
2
STYLE
5
3
100
AcDbSymbolTable
70
1
0
STYLE
5
11
100
AcDbSymbolTableRecord
100
AcDbTextStyleTableRecord
2
STANDARD
70
0
0
ENDTAB
0
TABLE
2
VIEW
5
6
100
AcDbSymbolTable
70
0
0
ENDTAB
0
TABLE
2
UCS
5
7
100
AcDbSymbolTable
70
0
0
ENDTAB
0
TABLE
2
APPID
5
9
100
AcDbSymbolTable
70
2
0
APPID
5
12
100
AcDbSymbolTableRecord
100
AcDbRegAppTableRecord
2
ACAD
70
0
0
ENDTAB
0
TABLE
2
DIMSTYLE
5
A
100
AcDbSymbolTable
70
1
0
ENDTAB
0
TABLE
2
BLOCK_RECORD
5
1
100
AcDbSymbolTable
70
1
0
BLOCK_RECORD
5
1F
100
AcDbSymbolTableRecord
100
AcDbBlockTableRecord
2
*MODEL_SPACE
0
BLOCK_RECORD
5
1B
100
AcDbSymbolTableRecord
100
AcDbBlockTableRecord
2
*PAPER_SPACE
0
ENDTAB
0
ENDSEC
0
SECTION
2
BLOCKS
0
BLOCK
5
20
100
AcDbEntity
100
AcDbBlockBegin
2
*MODEL_SPACE
0
ENDBLK
5
21
100
AcDbEntity
100
AcDbBlockEnd
0
BLOCK
5
1C
100
AcDbEntity
100
AcDbBlockBegin
2
*PAPER_SPACE
0
ENDBLK
5
1D
100
AcDbEntity
100
AcDbBlockEnd
0
ENDSEC
0
SECTION
2
ENTITIES
0
CIRCLE
5
100
100
AcDbEntity
8
0
100
AcDbCircle
10
-173.16362949363241
20
-97.999999999999901
30
0
40
1.4999999999999858
210
0
220
0
230
1
0
CIRCLE
5
101
100
AcDbEntity
8
0
100
AcDbCircle
10
-131.16362949363241
20
-98
30
0
40
1.5000000000000036
210
0
220
0
230
1
0
LWPOLYLINE
5
102
100
AcDbEntity
8
0
100
AcDbPolyline
90
4
70
1
43
0.0
10
-145.83016540240683
20
-58.329209370465193
10
-145.83016540240681
20
-68.77643104571915
42
-0.99999999999999989
10
-155.83016555141847
20
-68.77643104571915
10
-155.83016555141845
20
-58.329209370465172
42
-0.99999999999999989
0
LWPOLYLINE
5
103
100
AcDbEntity
8
0
100
AcDbPolyline
90
4
70
1
43
0.0
10
-59.999999999999957
20
-47.539999999999949
10
-109.99999999999993
20
-47.540000000000013
42
-0.99999999999999989
10
-109.99999999999997
20
-7.54
10
-59.999999999999972
20
-7.5400000000000045
42
-0.99999999999999989
0
LWPOLYLINE
5
104
100
AcDbEntity
8
0
100
AcDbPolyline
90
6
70
1
43
0.0
10
-164.41617679287299
20
-179.54319598552337
10
-169.1786767928732
20
-179.54319598552337
10
-171.55992679287294
20
-175.41875000000027
10
-169.1786767928732
20
-171.29430401447644
10
-164.41617679287299
20
-171.29430401447644
10
-162.03492679287322
20
-175.41875000000027
0
LWPOLYLINE
5
105
100
AcDbEntity
8
0
100
AcDbPolyline
90
6
70
1
43
0.0
10
-114.18606365256117
20
-173.19319598552335
10
-116.56731365256121
20
-169.06875000000019
10
-114.18606365256117
20
-164.94430401447636
10
-109.42356365256117
20
-164.94430401447636
10
-107.04231365256121
20
-169.06875000000019
10
-109.42356365256117
20
-173.19319598552335
0
LWPOLYLINE
5
106
100
AcDbEntity
8
0
100
AcDbPolyline
90
6
70
1
43
0.0
10
-140.03788153674867
20
-175.41875000000027
10
-142.41913153674864
20
-179.54319598552337
10
-147.18163153674865
20
-179.54319598552337
10
-149.56288153674871
20
-175.41875000000027
10
-147.18163153674865
20
-171.29430401447644
10
-142.41913153674864
20
-171.29430401447644
0
LWPOLYLINE
5
107
100
AcDbEntity
8
0
100
AcDbPolyline
90
6
70
1
43
0.0
10
-175.41469942093551
20
-173.19319598552335
10
-180.17719942093549
20
-173.19319598552335
10
-182.55844942093552
20
-169.06875000000019
10
-180.17719942093549
20
-164.94430401447636
10
-175.41469942093551
20
-164.94430401447636
10
-173.03344942093554
20
-169.06875000000019
0
LWPOLYLINE
5
108
100
AcDbEntity
8
0
100
AcDbPolyline
90
6
70
1
43
0.0
10
-127.56583628062387
20
-162.71875000000023
10
-125.1845862806239
20
-158.59430401447668
10
-120.4220862806239
20
-158.59430401447668
10
-118.04083628062386
20
-162.71875000000023
10
-120.4220862806239
20
-166.84319598552335
10
-125.1845862806239
20
-166.84319598552335
0
LWPOLYLINE
5
109
100
AcDbEntity
8
0
100
AcDbPolyline
90
6
70
1
43
0.0
10
-98.425041024499151
20
-166.84319598552335
10
-103.18754102449915
20
-166.84319598552335
10
-105.56879102449919
20
-162.71875000000023
10
-103.18754102449915
20
-158.59430401447668
10
-98.425041024499151
20
-158.59430401447668
10
-96.043791024499185
20
-162.71875000000023
0
LWPOLYLINE
5
110
100
AcDbEntity
8
0
100
AcDbPolyline
90
6
70
1
43
0.0
10
-147.18163153674865
20
-158.59430401447668
10
-142.41913153674864
20
-158.59430401447668
10
-140.03788153674867
20
-162.71875000000023
10
-142.41913153674864
20
-166.84319598552335
10
-147.18163153674865
20
-166.84319598552335
10
-149.56288153674871
20
-162.71875000000023
0
LWPOLYLINE
5
111
100
AcDbEntity
8
0
100
AcDbPolyline
90
6
70
1
43
0.0
10
-131.42060890868601
20
-160.49319598552353
10
-136.18310890868599
20
-160.49319598552353
10
-138.56435890868602
20
-156.36875000000026
10
-136.18310890868599
20
-152.24430401447671
10
-131.42060890868601
20
-152.24430401447671
10
-129.03935890868604
20
-156.36875000000026
0
LWPOLYLINE
5
112
100
AcDbEntity
8
0
100
AcDbPolyline
90
6
70
1
43
0.0
10
-162.03492679287322
20
-162.71875000000023
10
-164.41617679287299
20
-166.84319598552335
10
-169.1786767928732
20
-166.84319598552335
10
-171.55992679287294
20
-162.71875000000023
10
-169.1786767928732
20
-158.59430401447668
10
-164.41617679287299
20
-158.59430401447668
0
LWPOLYLINE
5
113
100
AcDbEntity
8
0
100
AcDbPolyline
90
6
70
1
43
0.0
10
-94.570268396436461
20
-169.06875000000019
10
-92.189018396436495
20
-164.94430401447636
10
-87.426518396436492
20
-164.94430401447636
10
-85.045268396436526
20
-169.06875000000019
10
-87.426518396436492
20
-173.19319598552335
10
-92.189018396436495
20
-173.19319598552335
0
LWPOLYLINE
5
114
100
AcDbEntity
8
0
100
AcDbPolyline
90
6
70
1
43
0.0
10
-129.03935890868604
20
-169.06875000000019
10
-131.42060890868601
20
-173.19319598552335
10
-136.18310890868599
20
-173.19319598552335
10
-138.56435890868602
20
-169.06875000000019
10
-136.18310890868599
20
-164.94430401447636
10
-131.42060890868601
20
-164.94430401447636
0
LWPOLYLINE
5
115
100
AcDbEntity
8
0
100
AcDbPolyline
90
6
70
1
43
0.0
10
-118.04083628062386
20
-175.41875000000027
10
-120.4220862806239
20
-179.54319598552337
10
-125.1845862806239
20
-179.54319598552337
10
-127.56583628062387
20
-175.41875000000027
10
-125.1845862806239
20
-171.29430401447644
10
-120.4220862806239
20
-171.29430401447644
0
LWPOLYLINE
5
116
100
AcDbEntity
8
0
100
AcDbPolyline
90
6
70
1
43
0.0
10
-153.41765416481081
20
-164.94430401447636
10
-151.03640416481079
20
-169.06875000000019
10
-153.41765416481081
20
-173.19319598552335
10
-158.1801541648108
20
-173.19319598552335
10
-160.56140416481077
20
-169.06875000000019
10
-158.1801541648108
20
-164.94430401447636
0
LWPOLYLINE
5
117
100
AcDbEntity
8
0
100
AcDbPolyline
90
6
70
1
43
0.0
10
-103.18754102449915
20
-179.54319598552337
10
-105.56879102449919
20
-175.41875000000027
10
-103.18754102449915
20
-171.29430401447644
10
-98.425041024499151
20
-171.29430401447644
10
-96.043791024499185
20
-175.41875000000027
10
-98.425041024499151
20
-179.54319598552337
0
LWPOLYLINE
5
118
100
AcDbEntity
8
0
100
AcDbPolyline
90
6
70
1
43
0.0
10
-116.56731365256121
20
-156.36875000000026
10
-114.18606365256117
20
-152.24430401447671
10
-109.42356365256117
20
-152.24430401447671
10
-107.04231365256121
20
-156.36875000000026
10
-109.42356365256117
20
-160.49319598552353
10
-114.18606365256117
20
-160.49319598552353
0
LWPOLYLINE
5
119
100
AcDbEntity
8
0
100
AcDbPolyline
90
6
70
1
43
0.0
10
-153.41765416481081
20
-152.24430401447671
10
-151.03640416481079
20
-156.36875000000026
10
-153.41765416481081
20
-160.49319598552353
10
-158.1801541648108
20
-160.49319598552353
10
-160.56140416481077
20
-156.36875000000026
10
-158.1801541648108
20
-152.24430401447671
0
LWPOLYLINE
5
120
100
AcDbEntity
8
0
100
AcDbPolyline
90
6
70
1
43
0.0
10
-92.189018396436495
20
-152.24430401447671
10
-87.426518396436492
20
-152.24430401447671
10
-85.045268396436526
20
-156.36875000000026
10
-87.426518396436492
20
-160.49319598552353
10
-92.189018396436495
20
-160.49319598552353
10
-94.570268396436461
20
-156.36875000000026
0
LWPOLYLINE
5
121
100
AcDbEntity
8
0
100
AcDbPolyline
90
6
70
1
43
0.0
10
-180.17719942093549
20
-160.49319598552353
10
-182.55844942093552
20
-156.36875000000026
10
-180.17719942093549
20
-152.24430401447671
10
-175.41469942093551
20
-152.24430401447671
10
-173.03344942093554
20
-156.36875000000026
10
-175.41469942093551
20
-160.49319598552353
0
LWPOLYLINE
5
122
100
AcDbEntity
8
0
100
AcDbPolyline
90
6
70
1
43
0.0
10
-30.05265525612451
20
-175.41875000000027
10
-32.433905256124476
20
-179.54319598552337
10
-37.196405256124478
20
-179.54319598552337
10
-39.577655256124515
20
-175.41875000000027
10
-37.196405256124478
20
-171.29430401447644
10
-32.433905256124476
20
-171.29430401447644
0
LWPOLYLINE
5
123
100
AcDbEntity
8
0
100
AcDbPolyline
90
6
70
1
43
0.0
10
-48.194927884186995
20
-164.94430401447636
10
-43.432427884186993
20
-164.94430401447636
10
-41.051177884186956
20
-169.06875000000019
10
-43.432427884186993
20
-173.19319598552335
10
-48.194927884186995
20
-173.19319598552335
10
-50.576177884186961
20
-169.06875000000019
0
LWPOLYLINE
5
124
100
AcDbEntity
8
0
100
AcDbPolyline
90
6
70
1
43
0.0
10
-61.574700512249265
20
-162.71875000000023
10
-59.193450512249299
20
-158.59430401447668
10
-54.430950512249296
20
-158.59430401447668
10
-52.04970051224926
20
-162.71875000000023
10
-54.430950512249296
20
-166.84319598552335
10
-59.193450512249299
20
-166.84319598552335
0
LWPOLYLINE
5
125
100
AcDbEntity
8
0
100
AcDbPolyline
90
6
70
1
43
0.0
10
-32.433905256124476
20
-166.84319598552335
10
-37.196405256124478
20
-166.84319598552335
10
-39.577655256124515
20
-162.71875000000023
10
-37.196405256124478
20
-158.59430401447668
10
-32.433905256124476
20
-158.59430401447668
10
-30.05265525612451
20
-162.71875000000023
0
LWPOLYLINE
5
126
100
AcDbEntity
8
0
100
AcDbPolyline
90
6
70
1
43
0.0
10
-48.194927884186995
20
-160.49319598552353
10
-50.576177884186961
20
-156.36875000000026
10
-48.194927884186995
20
-152.24430401447671
10
-43.432427884186993
20
-152.24430401447671
10
-41.051177884186956
20
-156.36875000000026
10
-43.432427884186993
20
-160.49319598552353
0
LWPOLYLINE
5
127
100
AcDbEntity
8
0
100
AcDbPolyline
90
6
70
1
43
0.0
10
-76.427995768374331
20
-158.59430401447668
10
-74.046745768374365
20
-162.71875000000023
10
-76.427995768374331
20
-166.84319598552335
10
-81.190495768374333
20
-166.84319598552335
10
-83.57174576837437
20
-162.71875000000023
10
-81.190495768374333
20
-158.59430401447668
0
LWPOLYLINE
5
128
100
AcDbEntity
8
0
100
AcDbPolyline
90
6
70
1
43
0.0
10
-76.427995768374331
20
-179.54319598552337
10
-81.190495768374333
20
-179.54319598552337
10
-83.57174576837437
20
-175.41875000000027
10
-81.190495768374333
20
-171.29430401447644
10
-76.427995768374331
20
-171.29430401447644
10
-74.046745768374365
20
-175.41875000000027
0
LWPOLYLINE
5
129
100
AcDbEntity
8
0
100
AcDbPolyline
90
6
70
1
43
0.0
10
-65.429473140311671
20
-152.24430401447671
10
-63.04822314031199
20
-156.36875000000026
10
-65.429473140311671
20
-160.49319598552353
10
-70.191973140311674
20
-160.49319598552353
10
-72.573223140311711
20
-156.36875000000026
10
-70.191973140311674
20
-152.24430401447671
0
LWPOLYLINE
5
130
100
AcDbEntity
8
0
100
AcDbPolyline
90
6
70
1
43
0.0
10
-61.574700512249265
20
-175.41875000000027
10
-59.193450512249299
20
-171.29430401447644
10
-54.430950512249296
20
-171.29430401447644
10
-52.04970051224926
20
-175.41875000000027
10
-54.430950512249296
20
-179.54319598552337
10
-59.193450512249299
20
-179.54319598552337
0
LWPOLYLINE
5
131
100
AcDbEntity
8
0
100
AcDbPolyline
90
6
70
1
43
0.0
10
-63.04822314031199
20
-169.06875000000019
10
-65.429473140311671
20
-173.19319598552335
10
-70.191973140311674
20
-173.19319598552335
10
-72.573223140311711
20
-169.06875000000019
10
-70.191973140311674
20
-164.94430401447636
10
-65.429473140311671
20
-164.94430401447636
0
LWPOLYLINE
5
132
100
AcDbEntity
8
0
100
AcDbPolyline
90
6
70
1
43
0.0
10
-21.435382628062172
20
-160.49319598552353
10
-26.197882628062175
20
-160.49319598552353
10
-28.57913262806214
20
-156.36875000000026
10
-26.197882628062175
20
-152.24430401447671
10
-21.435382628062172
20
-152.24430401447671
10
-19.054132628062206
20
-156.36875000000026
0
LWPOLYLINE
5
133
100
AcDbEntity
8
0
100
AcDbPolyline
90
6
70
1
43
0.0
10
-26.197882628062175
20
-173.19319598552335
10
-28.57913262806214
20
-169.06875000000019
10
-26.197882628062175
20
-164.94430401447636
10
-21.435382628062172
20
-164.94430401447636
10
-19.054132628062206
20
-169.06875000000019
10
-21.435382628062172
20
-173.19319598552335
0
LWPOLYLINE
5
134
100
AcDbEntity
8
0
100
AcDbPolyline
90
6
70
1
43
0.0
10
-188.04913925737191
20
-7.4485500000002247
10
-186.39202851474408
20
-10.318750000000207
10
-188.04913925737191
20
-13.188950000000261
10
-191.36336074262806
20
-13.188950000000261
10
-193.02047148525594
20
-10.318749999999994
10
-191.36336074262806
20
-7.4485500000000116
0
LWPOLYLINE
5
135
100
AcDbEntity
8
0
100
AcDbPolyline
90
6
70
1
43
0.0
10
-193.02047148525594
20
-188.1187500000002
10
-191.36336074262806
20
-185.24855000000017
10
-188.04913925737191
20
-185.24855000000017
10
-186.39202851474408
20
-188.1187500000002
10
-188.04913925737191
20
-190.98895000000033
10
-191.36336074262806
20
-190.98895000000033
0
LWPOLYLINE
5
136
100
AcDbEntity
8
0
100
AcDbPolyline
90
6
70
1
43
0.0
10
-8.592028514743788
20
-188.1187500000002
10
-10.249139257371667
20
-190.98895000000033
10
-13.56336074262785
20
-190.98895000000033
10
-15.220471485255942
20
-188.1187500000002
10
-13.56336074262785
20
-185.24855000000017
10
-10.249139257371667
20
-185.24855000000017
0
LWPOLYLINE
5
137
100
AcDbEntity
8
0
100
AcDbPolyline
90
6
70
1
43
0.0
10
-13.56336074262785
20
-7.4485500000000116
10
-10.249139257371667
20
-7.4485500000002247
10
-8.592028514743788
20
-10.318750000000207
10
-10.249139257371667
20
-13.188950000000261
10
-13.56336074262785
20
-13.188950000000261
10
-15.220471485255942
20
-10.318749999999994
0
LWPOLYLINE
5
138
100
AcDbEntity
8
0
100
AcDbPolyline
90
4
70
1
43
0.0
10
-201.61250000000001
20
-198.42480000000029
10
0
20
-198.42480000000029
10
0
20
0
10
-201.61250000000001
20
0
0
ENDSEC
0
SECTION
2
OBJECTS
0
DICTIONARY
5
C
100
AcDbDictionary
3
ACAD_GROUP
350
D
3
ACAD_MLINESTYLE
350
17
0
DICTIONARY
5
D
100
AcDbDictionary
0
DICTIONARY
5
1A
330
C
100
AcDbDictionary
0
DICTIONARY
5
17
100
AcDbDictionary
0
ENDSEC
0
EOF
