0
SECTION
2
HEADER
9
$INSUNITS
70
1
9
$ACADVER
1
AC1014
9
$HANDSEED
5
FFFF
0
ENDSEC
0
SECTION
2
TABLES
0
TABLE
2
VPORT
5
8
100
AcDbSymbolTable
0
ENDTAB
0
TABLE
2
LTYPE
5
5
100
AcDbSymbolTable
0
LTYPE
5
14
100
AcDbSymbolTableRecord
100
AcDbLinetypeTableRecord
2
BYBLOCK
70
0
0
LTYPE
5
15
100
AcDbSymbolTableRecord
100
AcDbLinetypeTableRecord
2
BYLAYER
70
0
0
ENDTAB
0
TABLE
2
LAYER
5
2
100
AcDbSymbolTable
70
2
0
LAYER
5
50
100
AcDbSymbolTableRecord
100
AcDbLayerTableRecord
2
0
70
0
6
CONTINUOUS
0
ENDTAB
0
TABLE
2
STYLE
5
3
100
AcDbSymbolTable
70
1
0
STYLE
5
11
100
AcDbSymbolTableRecord
100
AcDbTextStyleTableRecord
2
STANDARD
70
0
0
ENDTAB
0
TABLE
2
VIEW
5
6
100
AcDbSymbolTable
70
0
0
ENDTAB
0
TABLE
2
UCS
5
7
100
AcDbSymbolTable
70
0
0
ENDTAB
0
TABLE
2
APPID
5
9
100
AcDbSymbolTable
70
2
0
APPID
5
12
100
AcDbSymbolTableRecord
100
AcDbRegAppTableRecord
2
ACAD
70
0
0
ENDTAB
0
TABLE
2
DIMSTYLE
5
A
100
AcDbSymbolTable
70
1
0
ENDTAB
0
TABLE
2
BLOCK_RECORD
5
1
100
AcDbSymbolTable
70
1
0
BLOCK_RECORD
5
1F
100
AcDbSymbolTableRecord
100
AcDbBlockTableRecord
2
*MODEL_SPACE
0
BLOCK_RECORD
5
1B
100
AcDbSymbolTableRecord
100
AcDbBlockTableRecord
2
*PAPER_SPACE
0
ENDTAB
0
ENDSEC
0
SECTION
2
BLOCKS
0
BLOCK
5
20
100
AcDbEntity
100
AcDbBlockBegin
2
*MODEL_SPACE
0
ENDBLK
5
21
100
AcDbEntity
100
AcDbBlockEnd
0
BLOCK
5
1C
100
AcDbEntity
100
AcDbBlockBegin
2
*PAPER_SPACE
0
ENDBLK
5
1D
100
AcDbEntity
100
AcDbBlockEnd
0
ENDSEC
0
SECTION
2
ENTITIES
0
LINE
5
100
100
AcDbEntity
8
0
100
AcDbLine
10
16.308175403784436
20
16.662379763209579
30
-0.49999999999999994
11
16.214425403784436
21
16.499999999999993
31
-0.49999999999999994
0
LINE
5
101
100
AcDbEntity
8
0
100
AcDbLine
10
16.214425403784436
20
16.499999999999993
30
-0.49999999999999994
11
16.308175403784436
21
16.337620236790418
31
-0.49999999999999994
0
LINE
5
102
100
AcDbEntity
8
0
100
AcDbLine
10
16.589425403784436
20
15.999999999999993
30
-0.49999999999999994
11
16.495675403784436
21
16.162379763209575
31
-0.49999999999999994
0
LINE
5
103
100
AcDbEntity
8
0
100
AcDbLine
10
16.308175403784436
20
16.337620236790418
30
-0.49999999999999994
11
16.495675403784436
21
16.337620236790418
31
-0.49999999999999994
0
LINE
5
104
100
AcDbEntity
8
0
100
AcDbLine
10
16.495675403784436
20
16.162379763209575
30
-0.49999999999999994
11
16.308175403784436
21
16.162379763209575
31
-0.49999999999999994
0
LINE
5
105
100
AcDbEntity
8
0
100
AcDbLine
10
16.062662701892215
20
18.912379763209575
30
-0.49999999999999994
11
15.875162701892215
21
18.912379763209575
31
-0.49999999999999994
0
LINE
5
106
100
AcDbEntity
8
0
100
AcDbLine
10
16.928688105676656
20
16.412379763209575
30
-0.49999999999999994
11
16.741188105676656
21
16.412379763209575
31
-0.49999999999999994
0
LINE
5
107
100
AcDbEntity
8
0
100
AcDbLine
10
15.875162701892215
20
20.412379763209575
30
-0.49999999999999994
11
15.781412701892217
21
20.249999999999996
31
-0.49999999999999994
0
LINE
5
108
100
AcDbEntity
8
0
100
AcDbLine
10
16.156412701892215
20
18.75
30
-0.49999999999999994
11
16.062662701892215
21
18.912379763209575
31
-0.49999999999999994
0
LINE
5
109
100
AcDbEntity
8
0
100
AcDbLine
10
15.875162701892215
20
19.412379763209579
30
-0.49999999999999994
11
15.781412701892217
21
19.249999999999996
31
-0.49999999999999994
0
LINE
5
110
100
AcDbEntity
8
0
100
AcDbLine
10
15
20
15.093749999999993
30
-0.49999999999999994
11
22.999999999999996
21
15.093749999999993
31
-0.49999999999999994
0
LINE
5
111
100
AcDbEntity
8
0
100
AcDbLine
10
16.156412701892215
20
19.749999999999996
30
-0.49999999999999994
11
16.062662701892215
21
19.912379763209575
31
-0.49999999999999994
0
LINE
5
112
100
AcDbEntity
8
0
100
AcDbLine
10
16.062662701892215
20
20.412379763209575
30
-0.49999999999999994
11
15.875162701892215
21
20.412379763209575
31
-0.49999999999999994
0
LINE
5
113
100
AcDbEntity
8
0
100
AcDbLine
10
16.647438105676656
20
16.749999999999993
30
-0.49999999999999994
11
16.741188105676656
21
16.587620236790418
31
-0.49999999999999994
0
LINE
5
114
100
AcDbEntity
8
0
100
AcDbLine
10
17.022438105676656
20
16.249999999999996
30
-0.49999999999999994
11
16.928688105676656
21
16.412379763209575
31
-0.49999999999999994
0
LINE
5
115
100
AcDbEntity
8
0
100
AcDbLine
10
16.062662701892215
20
19.087620236790418
30
-0.49999999999999994
11
16.156412701892215
21
19.249999999999996
31
-0.49999999999999994
0
LINE
5
116
100
AcDbEntity
8
0
100
AcDbLine
10
15.875162701892215
20
20.087620236790418
30
-0.49999999999999994
11
16.062662701892215
21
20.087620236790418
31
-0.49999999999999994
0
LINE
5
117
100
AcDbEntity
8
0
100
AcDbLine
10
15.875162701892215
20
19.087620236790418
30
-0.49999999999999994
11
16.062662701892215
21
19.087620236790418
31
-0.49999999999999994
0
LINE
5
118
100
AcDbEntity
8
0
100
AcDbLine
10
16.062662701892215
20
20.087620236790418
30
-0.49999999999999994
11
16.156412701892215
21
20.249999999999996
31
-0.49999999999999994
0
LINE
5
119
100
AcDbEntity
8
0
100
AcDbLine
10
16.741188105676656
20
16.912379763209575
30
-0.49999999999999994
11
16.647438105676656
21
16.749999999999993
31
-0.49999999999999994
0
LINE
5
120
100
AcDbEntity
8
0
100
AcDbLine
10
16.156412701892215
20
20.249999999999996
30
-0.49999999999999994
11
16.062662701892215
21
20.412379763209575
31
-0.49999999999999994
0
LINE
5
121
100
AcDbEntity
8
0
100
AcDbLine
10
16.156412701892215
20
19.249999999999996
30
-0.49999999999999994
11
16.062662701892215
21
19.412379763209579
31
-0.49999999999999994
0
LINE
5
122
100
AcDbEntity
8
0
100
AcDbLine
10
16.062662701892215
20
19.412379763209579
30
-0.49999999999999994
11
15.875162701892215
21
19.412379763209579
31
-0.49999999999999994
0
LINE
5
123
100
AcDbEntity
8
0
100
AcDbLine
10
15.781412701892217
20
19.249999999999996
30
-0.49999999999999994
11
15.875162701892215
21
19.087620236790418
31
-0.49999999999999994
0
LINE
5
124
100
AcDbEntity
8
0
100
AcDbLine
10
15.781412701892217
20
20.249999999999996
30
-0.49999999999999994
11
15.875162701892215
21
20.087620236790418
31
-0.49999999999999994
0
LINE
5
125
100
AcDbEntity
8
0
100
AcDbLine
10
16.062662701892215
20
18.412379763209579
30
-0.49999999999999994
11
15.875162701892215
21
18.412379763209579
31
-0.49999999999999994
0
LINE
5
126
100
AcDbEntity
8
0
100
AcDbLine
10
16.156412701892215
20
18.249999999999996
30
-0.49999999999999994
11
16.062662701892215
21
18.412379763209579
31
-0.49999999999999994
0
LINE
5
127
100
AcDbEntity
8
0
100
AcDbLine
10
18.660738913245538
20
20.912379763209575
30
-0.49999999999999994
11
18.473238913245538
21
20.912379763209575
31
-0.49999999999999994
0
LINE
5
128
100
AcDbEntity
8
0
100
AcDbLine
10
16.062662701892215
20
18.087620236790414
30
-0.49999999999999994
11
16.156412701892215
21
18.249999999999996
31
-0.49999999999999994
0
LINE
5
129
100
AcDbEntity
8
0
100
AcDbLine
10
15.875162701892215
20
19.912379763209575
30
-0.49999999999999994
11
15.781412701892217
21
19.749999999999996
31
-0.49999999999999994
0
LINE
5
130
100
AcDbEntity
8
0
100
AcDbLine
10
15.781412701892217
20
19.749999999999996
30
-0.49999999999999994
11
15.875162701892215
21
19.587620236790414
31
-0.49999999999999994
0
LINE
5
131
100
AcDbEntity
8
0
100
AcDbLine
10
19.526764317029976
20
21.912379763209579
30
-0.49999999999999994
11
19.339264317029976
21
21.912379763209579
31
-0.49999999999999994
0
LINE
5
132
100
AcDbEntity
8
0
100
AcDbLine
10
16.062662701892215
20
19.587620236790414
30
-0.49999999999999994
11
16.156412701892215
21
19.749999999999996
31
-0.49999999999999994
0
LINE
5
133
100
AcDbEntity
8
0
100
AcDbLine
10
15.875162701892215
20
19.587620236790414
30
-0.49999999999999994
11
16.062662701892215
21
19.587620236790414
31
-0.49999999999999994
0
LINE
5
134
100
AcDbEntity
8
0
100
AcDbLine
10
16.062662701892215
20
19.912379763209575
30
-0.49999999999999994
11
15.875162701892215
21
19.912379763209575
31
-0.49999999999999994
0
LINE
5
135
100
AcDbEntity
8
0
100
AcDbLine
10
15
20
23
30
-0.49999999999999994
11
15
21
15.093749999999993
31
-0.49999999999999994
0
LINE
5
136
100
AcDbEntity
8
0
100
AcDbLine
10
19.526764317029976
20
20.087620236790418
30
-0.49999999999999994
11
19.620514317029976
21
20.249999999999996
31
-0.49999999999999994
0
LINE
5
137
100
AcDbEntity
8
0
100
AcDbLine
10
15.875162701892215
20
17.412379763209579
30
-0.49999999999999994
11
15.781412701892217
21
17.249999999999996
31
-0.49999999999999994
0
LINE
5
138
100
AcDbEntity
8
0
100
AcDbLine
10
15.781412701892217
20
21.25
30
-0.49999999999999994
11
15.875162701892215
21
21.087620236790414
31
-0.49999999999999994
0
LINE
5
139
100
AcDbEntity
8
0
100
AcDbLine
10
16.062662701892215
20
17.087620236790414
30
-0.49999999999999994
11
16.156412701892215
21
17.249999999999996
31
-0.49999999999999994
0
LINE
5
140
100
AcDbEntity
8
0
100
AcDbLine
10
16.062662701892215
20
16.912379763209575
30
-0.49999999999999994
11
15.875162701892215
21
16.912379763209575
31
-0.49999999999999994
0
LINE
5
141
100
AcDbEntity
8
0
100
AcDbLine
10
16.062662701892215
20
17.412379763209579
30
-0.49999999999999994
11
15.875162701892215
21
17.412379763209579
31
-0.49999999999999994
0
LINE
5
142
100
AcDbEntity
8
0
100
AcDbLine
10
22.999999999999996
20
23
30
-0.49999999999999994
11
15
21
23
31
-0.49999999999999994
0
LINE
5
143
100
AcDbEntity
8
0
100
AcDbLine
10
16.741188105676656
20
17.412379763209579
30
-0.49999999999999994
11
16.647438105676656
21
17.249999999999996
31
-0.49999999999999994
0
CIRCLE
5
144
100
AcDbEntity
8
0
100
AcDbCircle
10
22.499999999999996
20
22.499999999999996
30
-0.49999999999999994
40
0.11255999999999999
210
0
220
0
230
1
0
LINE
5
145
100
AcDbEntity
8
0
100
AcDbLine
10
22.999999999999996
20
15.093749999999993
30
-0.49999999999999994
11
22.999999999999996
21
23
31
-0.49999999999999994
0
LINE
5
146
100
AcDbEntity
8
0
100
AcDbLine
10
15.875162701892215
20
16.912379763209575
30
-0.49999999999999994
11
15.781412701892217
21
16.749999999999993
31
-0.49999999999999994
0
LINE
5
147
100
AcDbEntity
8
0
100
AcDbLine
10
16.156412701892215
20
20.749999999999996
30
-0.49999999999999994
11
16.062662701892215
21
20.912379763209575
31
-0.49999999999999994
0
LINE
5
148
100
AcDbEntity
8
0
100
AcDbLine
10
15.875162701892215
20
20.912379763209575
30
-0.49999999999999994
11
15.781412701892217
21
20.749999999999996
31
-0.49999999999999994
0
LINE
5
149
100
AcDbEntity
8
0
100
AcDbLine
10
15.875162701892215
20
16.087620236790414
30
-0.49999999999999994
11
16.062662701892215
21
16.087620236790414
31
-0.49999999999999994
0
LINE
5
150
100
AcDbEntity
8
0
100
AcDbLine
10
15.875162701892215
20
21.087620236790414
30
-0.49999999999999994
11
16.062662701892215
21
21.087620236790414
31
-0.49999999999999994
0
LINE
5
151
100
AcDbEntity
8
0
100
AcDbLine
10
15.875162701892215
20
20.587620236790414
30
-0.49999999999999994
11
16.062662701892215
21
20.587620236790414
31
-0.49999999999999994
0
LINE
5
152
100
AcDbEntity
8
0
100
AcDbLine
10
16.156412701892215
20
21.25
30
-0.49999999999999994
11
16.062662701892215
21
21.412379763209575
31
-0.49999999999999994
0
LINE
5
153
100
AcDbEntity
8
0
100
AcDbLine
10
16.156412701892215
20
17.75
30
-0.49999999999999994
11
16.062662701892215
21
17.912379763209575
31
-0.49999999999999994
0
LINE
5
154
100
AcDbEntity
8
0
100
AcDbLine
10
16.062662701892215
20
20.587620236790414
30
-0.49999999999999994
11
16.156412701892215
21
20.749999999999996
31
-0.49999999999999994
0
LINE
5
155
100
AcDbEntity
8
0
100
AcDbLine
10
15.781412701892217
20
20.749999999999996
30
-0.49999999999999994
11
15.875162701892215
21
20.587620236790414
31
-0.49999999999999994
0
LINE
5
156
100
AcDbEntity
8
0
100
AcDbLine
10
16.156412701892215
20
16.249999999999996
30
-0.49999999999999994
11
16.062662701892215
21
16.412379763209575
31
-0.49999999999999994
0
LINE
5
157
100
AcDbEntity
8
0
100
AcDbLine
10
15.875162701892215
20
17.587620236790414
30
-0.49999999999999994
11
16.062662701892215
21
17.587620236790414
31
-0.49999999999999994
0
LINE
5
158
100
AcDbEntity
8
0
100
AcDbLine
10
15.781412701892217
20
17.75
30
-0.49999999999999994
11
15.875162701892215
21
17.587620236790414
31
-0.49999999999999994
0
CIRCLE
5
159
100
AcDbEntity
8
0
100
AcDbCircle
10
15.499999999999998
20
15.499999999999995
30
-0.49999999999999994
40
0.11255999999999999
210
0
220
0
230
1
0
LINE
5
160
100
AcDbEntity
8
0
100
AcDbLine
10
15.875162701892215
20
21.412379763209575
30
-0.49999999999999994
11
15.781412701892217
21
21.25
31
-0.49999999999999994
0
LINE
5
161
100
AcDbEntity
8
0
100
AcDbLine
10
15.875162701892215
20
17.912379763209575
30
-0.49999999999999994
11
15.781412701892217
21
17.75
31
-0.49999999999999994
0
LINE
5
162
100
AcDbEntity
8
0
100
AcDbLine
10
16.062662701892215
20
21.087620236790414
30
-0.49999999999999994
11
16.156412701892215
21
21.25
31
-0.49999999999999994
0
LINE
5
163
100
AcDbEntity
8
0
100
AcDbLine
10
16.062662701892215
20
17.587620236790414
30
-0.49999999999999994
11
16.156412701892215
21
17.75
31
-0.49999999999999994
0
LINE
5
164
100
AcDbEntity
8
0
100
AcDbLine
10
15.875162701892215
20
16.412379763209575
30
-0.49999999999999994
11
15.781412701892217
21
16.249999999999996
31
-0.49999999999999994
0
LINE
5
165
100
AcDbEntity
8
0
100
AcDbLine
10
15.781412701892217
20
18.249999999999996
30
-0.49999999999999994
11
15.875162701892215
21
18.087620236790414
31
-0.49999999999999994
0
LINE
5
166
100
AcDbEntity
8
0
100
AcDbLine
10
15.781412701892217
20
16.749999999999993
30
-0.49999999999999994
11
15.875162701892215
21
16.587620236790418
31
-0.49999999999999994
0
LINE
5
167
100
AcDbEntity
8
0
100
AcDbLine
10
16.928688105676656
20
16.912379763209575
30
-0.49999999999999994
11
16.741188105676656
21
16.912379763209575
31
-0.49999999999999994
0
LINE
5
168
100
AcDbEntity
8
0
100
AcDbLine
10
16.062662701892215
20
17.912379763209575
30
-0.49999999999999994
11
15.875162701892215
21
17.912379763209575
31
-0.49999999999999994
0
LINE
5
169
100
AcDbEntity
8
0
100
AcDbLine
10
16.062662701892215
20
16.412379763209575
30
-0.49999999999999994
11
15.875162701892215
21
16.412379763209575
31
-0.49999999999999994
0
CIRCLE
5
170
100
AcDbEntity
8
0
100
AcDbCircle
10
22.499999999999996
20
15.499999999999995
30
-0.49999999999999994
40
0.11255999999999999
210
0
220
0
230
1
0
LINE
5
171
100
AcDbEntity
8
0
100
AcDbLine
10
15.875162701892215
20
17.087620236790414
30
-0.49999999999999994
11
16.062662701892215
21
17.087620236790414
31
-0.49999999999999994
0
LINE
5
172
100
AcDbEntity
8
0
100
AcDbLine
10
15.781412701892217
20
17.249999999999996
30
-0.49999999999999994
11
15.875162701892215
21
17.087620236790414
31
-0.49999999999999994
0
LINE
5
173
100
AcDbEntity
8
0
100
AcDbLine
10
16.156412701892215
20
16.749999999999993
30
-0.49999999999999994
11
16.062662701892215
21
16.912379763209575
31
-0.49999999999999994
0
LINE
5
174
100
AcDbEntity
8
0
100
AcDbLine
10
15.875162701892215
20
18.412379763209579
30
-0.49999999999999994
11
15.781412701892217
21
18.249999999999996
31
-0.49999999999999994
0
LINE
5
175
100
AcDbEntity
8
0
100
AcDbLine
10
16.928688105676656
20
16.587620236790418
30
-0.49999999999999994
11
17.022438105676656
21
16.749999999999993
31
-0.49999999999999994
0
LINE
5
176
100
AcDbEntity
8
0
100
AcDbLine
10
16.647438105676656
20
17.249999999999996
30
-0.49999999999999994
11
16.741188105676656
21
17.087620236790414
31
-0.49999999999999994
0
CIRCLE
5
177
100
AcDbEntity
8
0
100
AcDbCircle
10
15.499999999999998
20
22.499999999999996
30
-0.49999999999999994
40
0.11255999999999999
210
0
220
0
230
1
0
LINE
5
178
100
AcDbEntity
8
0
100
AcDbLine
10
17.022438105676656
20
16.749999999999993
30
-0.49999999999999994
11
16.928688105676656
21
16.912379763209575
31
-0.49999999999999994
0
LINE
5
179
100
AcDbEntity
8
0
100
AcDbLine
10
16.062662701892215
20
16.087620236790414
30
-0.49999999999999994
11
16.156412701892215
21
16.249999999999996
31
-0.49999999999999994
0
LINE
5
180
100
AcDbEntity
8
0
100
AcDbLine
10
16.062662701892215
20
20.912379763209575
30
-0.49999999999999994
11
15.875162701892215
21
20.912379763209575
31
-0.49999999999999994
0
LINE
5
181
100
AcDbEntity
8
0
100
AcDbLine
10
15.781412701892217
20
16.249999999999996
30
-0.49999999999999994
11
15.875162701892215
21
16.087620236790414
31
-0.49999999999999994
0
LINE
5
182
100
AcDbEntity
8
0
100
AcDbLine
10
15.875162701892215
20
16.587620236790418
30
-0.49999999999999994
11
16.062662701892215
21
16.587620236790418
31
-0.49999999999999994
0
LINE
5
183
100
AcDbEntity
8
0
100
AcDbLine
10
16.062662701892215
20
16.587620236790418
30
-0.49999999999999994
11
16.156412701892215
21
16.749999999999993
31
-0.49999999999999994
0
LINE
5
184
100
AcDbEntity
8
0
100
AcDbLine
10
16.741188105676656
20
16.587620236790418
30
-0.49999999999999994
11
16.928688105676656
21
16.587620236790418
31
-0.49999999999999994
0
LINE
5
185
100
AcDbEntity
8
0
100
AcDbLine
10
16.156412701892215
20
17.249999999999996
30
-0.49999999999999994
11
16.062662701892215
21
17.412379763209579
31
-0.49999999999999994
0
LINE
5
186
100
AcDbEntity
8
0
100
AcDbLine
10
18.812501615137759
20
15.999999999999993
30
-0.49999999999999994
11
18.906251615137759
21
15.837620236790416
31
-0.49999999999999994
0
LINE
5
187
100
AcDbEntity
8
0
100
AcDbLine
10
18.660738913245538
20
21.912379763209579
30
-0.49999999999999994
11
18.473238913245538
21
21.912379763209579
31
-0.49999999999999994
0
LINE
5
188
100
AcDbEntity
8
0
100
AcDbLine
10
16.062662701892215
20
21.587620236790411
30
-0.49999999999999994
11
16.156412701892215
21
21.749999999999996
31
-0.49999999999999994
0
LINE
5
189
100
AcDbEntity
8
0
100
AcDbLine
10
16.308175403784436
20
16.162379763209575
30
-0.49999999999999994
11
16.214425403784436
21
15.999999999999993
31
-0.49999999999999994
0
LINE
5
190
100
AcDbEntity
8
0
100
AcDbLine
10
15.875162701892215
20
21.587620236790411
30
-0.49999999999999994
11
16.062662701892215
21
21.587620236790411
31
-0.49999999999999994
0
LINE
5
191
100
AcDbEntity
8
0
100
AcDbLine
10
15.875162701892215
20
21.912379763209579
30
-0.49999999999999994
11
15.781412701892217
21
21.749999999999996
31
-0.49999999999999994
0
LINE
5
192
100
AcDbEntity
8
0
100
AcDbLine
10
16.062662701892215
20
21.412379763209575
30
-0.49999999999999994
11
15.875162701892215
21
21.412379763209575
31
-0.49999999999999994
0
LINE
5
193
100
AcDbEntity
8
0
100
AcDbLine
10
16.308175403784436
20
15.837620236790416
30
-0.49999999999999994
11
16.495675403784436
21
15.837620236790416
31
-0.49999999999999994
0
LINE
5
194
100
AcDbEntity
8
0
100
AcDbLine
10
17.022438105676656
20
17.249999999999996
30
-0.49999999999999994
11
16.928688105676656
21
17.412379763209579
31
-0.49999999999999994
0
LINE
5
195
100
AcDbEntity
8
0
100
AcDbLine
10
16.928688105676656
20
17.412379763209579
30
-0.49999999999999994
11
16.741188105676656
21
17.412379763209579
31
-0.49999999999999994
0
LINE
5
196
100
AcDbEntity
8
0
100
AcDbLine
10
16.495675403784436
20
15.837620236790416
30
-0.49999999999999994
11
16.589425403784436
21
15.999999999999993
31
-0.49999999999999994
0
LINE
5
197
100
AcDbEntity
8
0
100
AcDbLine
10
16.214425403784436
20
15.999999999999993
30
-0.49999999999999994
11
16.308175403784436
21
15.837620236790416
31
-0.49999999999999994
0
LINE
5
198
100
AcDbEntity
8
0
100
AcDbLine
10
15.781412701892217
20
21.749999999999996
30
-0.49999999999999994
11
15.875162701892215
21
21.587620236790411
31
-0.49999999999999994
0
LINE
5
199
100
AcDbEntity
8
0
100
AcDbLine
10
16.156412701892215
20
21.749999999999996
30
-0.49999999999999994
11
16.062662701892215
21
21.912379763209579
31
-0.49999999999999994
0
LINE
5
200
100
AcDbEntity
8
0
100
AcDbLine
10
16.062662701892215
20
21.912379763209579
30
-0.49999999999999994
11
15.875162701892215
21
21.912379763209579
31
-0.49999999999999994
0
LINE
5
201
100
AcDbEntity
8
0
100
AcDbLine
10
17.361700807568877
20
16.337620236790418
30
-0.49999999999999994
11
17.455450807568877
21
16.499999999999993
31
-0.49999999999999994
0
LINE
5
202
100
AcDbEntity
8
0
100
AcDbLine
10
17.455450807568877
20
16.499999999999993
30
-0.49999999999999994
11
17.361700807568877
21
16.662379763209579
31
-0.49999999999999994
0
LINE
5
203
100
AcDbEntity
8
0
100
AcDbLine
10
17.174200807568877
20
21.337620236790414
30
-0.49999999999999994
11
17.361700807568877
21
21.337620236790414
31
-0.49999999999999994
0
LINE
5
204
100
AcDbEntity
8
0
100
AcDbLine
10
18.379488913245538
20
19.749999999999996
30
-0.49999999999999994
11
18.473238913245538
21
19.587620236790414
31
-0.49999999999999994
0
LINE
5
205
100
AcDbEntity
8
0
100
AcDbLine
10
16.647438105676656
20
21.749999999999996
30
-0.49999999999999994
11
16.741188105676656
21
21.587620236790411
31
-0.49999999999999994
0
LINE
5
206
100
AcDbEntity
8
0
100
AcDbLine
10
16.308175403784436
20
17.162379763209575
30
-0.49999999999999994
11
16.214425403784436
21
16.999999999999996
31
-0.49999999999999994
0
LINE
5
207
100
AcDbEntity
8
0
100
AcDbLine
10
17.513463509461097
20
18.249999999999996
30
-0.49999999999999994
11
17.607213509461097
21
18.087620236790414
31
-0.49999999999999994
0
LINE
5
208
100
AcDbEntity
8
0
100
AcDbLine
10
17.946476211353318
20
20.5
30
-0.49999999999999994
11
18.040226211353318
21
20.337620236790414
31
-0.49999999999999994
0
LINE
5
209
100
AcDbEntity
8
0
100
AcDbLine
10
16.495675403784436
20
20.162379763209579
30
-0.49999999999999994
11
16.308175403784436
21
20.162379763209579
31
-0.49999999999999994
0
LINE
5
210
100
AcDbEntity
8
0
100
AcDbLine
10
17.174200807568877
20
22.162379763209575
30
-0.49999999999999994
11
17.080450807568877
21
21.999999999999996
31
-0.49999999999999994
0
LINE
5
211
100
AcDbEntity
8
0
100
AcDbLine
10
17.361700807568877
20
19.337620236790414
30
-0.49999999999999994
11
17.455450807568877
21
19.5
31
-0.49999999999999994
0
LINE
5
212
100
AcDbEntity
8
0
100
AcDbLine
10
18.040226211353318
20
21.837620236790411
30
-0.49999999999999994
11
18.227726211353318
21
21.837620236790411
31
-0.49999999999999994
0
LINE
5
213
100
AcDbEntity
8
0
100
AcDbLine
10
18.227726211353318
20
18.337620236790418
30
-0.49999999999999994
11
18.321476211353318
21
18.499999999999996
31
-0.49999999999999994
0
LINE
5
214
100
AcDbEntity
8
0
100
AcDbLine
10
17.888463509461097
20
21.25
30
-0.49999999999999994
11
17.794713509461097
21
21.412379763209575
31
-0.49999999999999994
0
LINE
5
215
100
AcDbEntity
8
0
100
AcDbLine
10
18.473238913245538
20
19.587620236790414
30
-0.49999999999999994
11
18.660738913245538
21
19.587620236790414
31
-0.49999999999999994
0
LINE
5
216
100
AcDbEntity
8
0
100
AcDbLine
10
17.607213509461097
20
18.587620236790414
30
-0.49999999999999994
11
17.794713509461097
21
18.587620236790414
31
-0.49999999999999994
0
LINE
5
217
100
AcDbEntity
8
0
100
AcDbLine
10
17.607213509461097
20
17.412379763209579
30
-0.49999999999999994
11
17.513463509461097
21
17.249999999999996
31
-0.49999999999999994
0
LINE
5
218
100
AcDbEntity
8
0
100
AcDbLine
10
17.946476211353318
20
21.999999999999996
30
-0.49999999999999994
11
18.040226211353318
21
21.837620236790411
31
-0.49999999999999994
0
LINE
5
219
100
AcDbEntity
8
0
100
AcDbLine
10
17.513463509461097
20
18.75
30
-0.49999999999999994
11
17.607213509461097
21
18.587620236790414
31
-0.49999999999999994
0
LINE
5
220
100
AcDbEntity
8
0
100
AcDbLine
10
18.754488913245538
20
20.249999999999996
30
-0.49999999999999994
11
18.660738913245538
21
20.412379763209575
31
-0.49999999999999994
0
LINE
5
221
100
AcDbEntity
8
0
100
AcDbLine
10
18.227726211353318
20
18.162379763209575
30
-0.49999999999999994
11
18.040226211353318
21
18.162379763209575
31
-0.49999999999999994
0
LINE
5
222
100
AcDbEntity
8
0
100
AcDbLine
10
16.308175403784436
20
20.837620236790418
30
-0.49999999999999994
11
16.495675403784436
21
20.837620236790418
31
-0.49999999999999994
0
LINE
5
223
100
AcDbEntity
8
0
100
AcDbLine
10
18.227726211353318
20
20.837620236790418
30
-0.49999999999999994
11
18.321476211353318
21
20.999999999999996
31
-0.49999999999999994
0
LINE
5
224
100
AcDbEntity
8
0
100
AcDbLine
10
16.214425403784436
20
18.999999999999996
30
-0.49999999999999994
11
16.308175403784436
21
18.837620236790414
31
-0.49999999999999994
0
LINE
5
225
100
AcDbEntity
8
0
100
AcDbLine
10
16.214425403784436
20
18.499999999999996
30
-0.49999999999999994
11
16.308175403784436
21
18.337620236790418
31
-0.49999999999999994
0
LINE
5
226
100
AcDbEntity
8
0
100
AcDbLine
10
16.495675403784436
20
20.337620236790414
30
-0.49999999999999994
11
16.589425403784436
21
20.5
31
-0.49999999999999994
0
LINE
5
227
100
AcDbEntity
8
0
100
AcDbLine
10
17.607213509461097
20
18.412379763209579
30
-0.49999999999999994
11
17.513463509461097
21
18.249999999999996
31
-0.49999999999999994
0
LINE
5
228
100
AcDbEntity
8
0
100
AcDbLine
10
17.888463509461097
20
21.749999999999996
30
-0.49999999999999994
11
17.794713509461097
21
21.912379763209579
31
-0.49999999999999994
0
LINE
5
229
100
AcDbEntity
8
0
100
AcDbLine
10
16.589425403784436
20
20.5
30
-0.49999999999999994
11
16.495675403784436
21
20.662379763209575
31
-0.49999999999999994
0
LINE
5
230
100
AcDbEntity
8
0
100
AcDbLine
10
16.308175403784436
20
20.662379763209575
30
-0.49999999999999994
11
16.214425403784436
21
20.5
31
-0.49999999999999994
0
LINE
5
231
100
AcDbEntity
8
0
100
AcDbLine
10
18.040226211353318
20
19.337620236790414
30
-0.49999999999999994
11
18.227726211353318
21
19.337620236790414
31
-0.49999999999999994
0
LINE
5
232
100
AcDbEntity
8
0
100
AcDbLine
10
16.308175403784436
20
20.162379763209579
30
-0.49999999999999994
11
16.214425403784436
21
19.999999999999996
31
-0.49999999999999994
0
LINE
5
233
100
AcDbEntity
8
0
100
AcDbLine
10
16.308175403784436
20
18.337620236790418
30
-0.49999999999999994
11
16.495675403784436
21
18.337620236790418
31
-0.49999999999999994
0
LINE
5
234
100
AcDbEntity
8
0
100
AcDbLine
10
17.361700807568877
20
22.162379763209575
30
-0.49999999999999994
11
17.174200807568877
21
22.162379763209575
31
-0.49999999999999994
0
LINE
5
235
100
AcDbEntity
8
0
100
AcDbLine
10
17.794713509461097
20
21.087620236790414
30
-0.49999999999999994
11
17.888463509461097
21
21.25
31
-0.49999999999999994
0
LINE
5
236
100
AcDbEntity
8
0
100
AcDbLine
10
16.214425403784436
20
21.999999999999996
30
-0.49999999999999994
11
16.308175403784436
21
21.837620236790411
31
-0.49999999999999994
0
LINE
5
237
100
AcDbEntity
8
0
100
AcDbLine
10
16.495675403784436
20
21.337620236790414
30
-0.49999999999999994
11
16.589425403784436
21
21.499999999999996
31
-0.49999999999999994
0
LINE
5
238
100
AcDbEntity
8
0
100
AcDbLine
10
16.214425403784436
20
19.5
30
-0.49999999999999994
11
16.308175403784436
21
19.337620236790414
31
-0.49999999999999994
0
LINE
5
239
100
AcDbEntity
8
0
100
AcDbLine
10
16.741188105676656
20
16.412379763209575
30
-0.49999999999999994
11
16.647438105676656
21
16.249999999999996
31
-0.49999999999999994
0
LINE
5
240
100
AcDbEntity
8
0
100
AcDbLine
10
18.660738913245538
20
17.587620236790414
30
-0.49999999999999994
11
18.754488913245538
21
17.75
31
-0.49999999999999994
0
LINE
5
241
100
AcDbEntity
8
0
100
AcDbLine
10
16.741188105676656
20
18.912379763209575
30
-0.49999999999999994
11
16.647438105676656
21
18.75
31
-0.49999999999999994
0
LINE
5
242
100
AcDbEntity
8
0
100
AcDbLine
10
16.589425403784436
20
21.499999999999996
30
-0.49999999999999994
11
16.495675403784436
21
21.662379763209575
31
-0.49999999999999994
0
LINE
5
243
100
AcDbEntity
8
0
100
AcDbLine
10
18.379488913245538
20
16.749999999999993
30
-0.49999999999999994
11
18.473238913245538
21
16.587620236790418
31
-0.49999999999999994
0
LINE
5
244
100
AcDbEntity
8
0
100
AcDbLine
10
17.174200807568877
20
19.662379763209575
30
-0.49999999999999994
11
17.080450807568877
21
19.5
31
-0.49999999999999994
0
LINE
5
245
100
AcDbEntity
8
0
100
AcDbLine
10
18.473238913245538
20
18.087620236790414
30
-0.49999999999999994
11
18.660738913245538
21
18.087620236790414
31
-0.49999999999999994
0
LINE
5
246
100
AcDbEntity
8
0
100
AcDbLine
10
18.660738913245538
20
19.912379763209575
30
-0.49999999999999994
11
18.473238913245538
21
19.912379763209575
31
-0.49999999999999994
0
LINE
5
247
100
AcDbEntity
8
0
100
AcDbLine
10
17.794713509461097
20
18.912379763209575
30
-0.49999999999999994
11
17.607213509461097
21
18.912379763209575
31
-0.49999999999999994
0
LINE
5
248
100
AcDbEntity
8
0
100
AcDbLine
10
16.495675403784436
20
17.162379763209575
30
-0.49999999999999994
11
16.308175403784436
21
17.162379763209575
31
-0.49999999999999994
0
LINE
5
249
100
AcDbEntity
8
0
100
AcDbLine
10
17.794713509461097
20
18.587620236790414
30
-0.49999999999999994
11
17.888463509461097
21
18.75
31
-0.49999999999999994
0
LINE
5
250
100
AcDbEntity
8
0
100
AcDbLine
10
17.888463509461097
20
16.249999999999996
30
-0.49999999999999994
11
17.794713509461097
21
16.412379763209575
31
-0.49999999999999994
0
LINE
5
251
100
AcDbEntity
8
0
100
AcDbLine
10
16.214425403784436
20
19.999999999999996
30
-0.49999999999999994
11
16.308175403784436
21
19.837620236790414
31
-0.49999999999999994
0
LINE
5
252
100
AcDbEntity
8
0
100
AcDbLine
10
18.660738913245538
20
18.087620236790414
30
-0.49999999999999994
11
18.754488913245538
21
18.249999999999996
31
-0.49999999999999994
0
LINE
5
253
100
AcDbEntity
8
0
100
AcDbLine
10
17.607213509461097
20
17.912379763209575
30
-0.49999999999999994
11
17.513463509461097
21
17.75
31
-0.49999999999999994
0
LINE
5
254
100
AcDbEntity
8
0
100
AcDbLine
10
17.794713509461097
20
19.412379763209579
30
-0.49999999999999994
11
17.607213509461097
21
19.412379763209579
31
-0.49999999999999994
0
LINE
5
255
100
AcDbEntity
8
0
100
AcDbLine
10
16.214425403784436
20
17.499999999999993
30
-0.49999999999999994
11
16.308175403784436
21
17.337620236790418
31
-0.49999999999999994
0
LINE
5
256
100
AcDbEntity
8
0
100
AcDbLine
10
16.495675403784436
20
18.162379763209575
30
-0.49999999999999994
11
16.308175403784436
21
18.162379763209575
31
-0.49999999999999994
0
LINE
5
257
100
AcDbEntity
8
0
100
AcDbLine
10
18.660738913245538
20
19.412379763209579
30
-0.49999999999999994
11
18.473238913245538
21
19.412379763209579
31
-0.49999999999999994
0
LINE
5
258
100
AcDbEntity
8
0
100
AcDbLine
10
16.308175403784436
20
21.162379763209579
30
-0.49999999999999994
11
16.214425403784436
21
20.999999999999996
31
-0.49999999999999994
0
LINE
5
259
100
AcDbEntity
8
0
100
AcDbLine
10
18.473238913245538
20
20.587620236790414
30
-0.49999999999999994
11
18.660738913245538
21
20.587620236790414
31
-0.49999999999999994
0
LINE
5
260
100
AcDbEntity
8
0
100
AcDbLine
10
17.794713509461097
20
21.912379763209579
30
-0.49999999999999994
11
17.607213509461097
21
21.912379763209579
31
-0.49999999999999994
0
LINE
5
261
100
AcDbEntity
8
0
100
AcDbLine
10
17.794713509461097
20
17.912379763209575
30
-0.49999999999999994
11
17.607213509461097
21
17.912379763209575
31
-0.49999999999999994
0
LINE
5
262
100
AcDbEntity
8
0
100
AcDbLine
10
18.321476211353318
20
19.5
30
-0.49999999999999994
11
18.227726211353318
21
19.662379763209575
31
-0.49999999999999994
0
LINE
5
263
100
AcDbEntity
8
0
100
AcDbLine
10
18.379488913245538
20
18.249999999999996
30
-0.49999999999999994
11
18.473238913245538
21
18.087620236790414
31
-0.49999999999999994
0
LINE
5
264
100
AcDbEntity
8
0
100
AcDbLine
10
16.308175403784436
20
21.837620236790411
30
-0.49999999999999994
11
16.495675403784436
21
21.837620236790411
31
-0.49999999999999994
0
LINE
5
265
100
AcDbEntity
8
0
100
AcDbLine
10
16.495675403784436
20
19.837620236790414
30
-0.49999999999999994
11
16.589425403784436
21
19.999999999999996
31
-0.49999999999999994
0
LINE
5
266
100
AcDbEntity
8
0
100
AcDbLine
10
17.607213509461097
20
19.087620236790418
30
-0.49999999999999994
11
17.794713509461097
21
19.087620236790418
31
-0.49999999999999994
0
LINE
5
267
100
AcDbEntity
8
0
100
AcDbLine
10
17.455450807568877
20
18.999999999999996
30
-0.49999999999999994
11
17.361700807568877
21
19.162379763209579
31
-0.49999999999999994
0
LINE
5
268
100
AcDbEntity
8
0
100
AcDbLine
10
16.589425403784436
20
19.999999999999996
30
-0.49999999999999994
11
16.495675403784436
21
20.162379763209579
31
-0.49999999999999994
0
LINE
5
269
100
AcDbEntity
8
0
100
AcDbLine
10
16.308175403784436
20
18.837620236790414
30
-0.49999999999999994
11
16.495675403784436
21
18.837620236790414
31
-0.49999999999999994
0
LINE
5
270
100
AcDbEntity
8
0
100
AcDbLine
10
16.308175403784436
20
18.162379763209575
30
-0.49999999999999994
11
16.214425403784436
21
17.999999999999996
31
-0.49999999999999994
0
LINE
5
271
100
AcDbEntity
8
0
100
AcDbLine
10
16.589425403784436
20
21.999999999999996
30
-0.49999999999999994
11
16.495675403784436
21
22.162379763209575
31
-0.49999999999999994
0
LINE
5
272
100
AcDbEntity
8
0
100
AcDbLine
10
16.495675403784436
20
20.837620236790418
30
-0.49999999999999994
11
16.589425403784436
21
20.999999999999996
31
-0.49999999999999994
0
LINE
5
273
100
AcDbEntity
8
0
100
AcDbLine
10
18.040226211353318
20
21.662379763209575
30
-0.49999999999999994
11
17.946476211353318
21
21.499999999999996
31
-0.49999999999999994
0
LINE
5
274
100
AcDbEntity
8
0
100
AcDbLine
10
18.660738913245538
20
18.587620236790414
30
-0.49999999999999994
11
18.754488913245538
21
18.75
31
-0.49999999999999994
0
LINE
5
275
100
AcDbEntity
8
0
100
AcDbLine
10
17.607213509461097
20
17.087620236790414
30
-0.49999999999999994
11
17.794713509461097
21
17.087620236790414
31
-0.49999999999999994
0
LINE
5
276
100
AcDbEntity
8
0
100
AcDbLine
10
18.660738913245538
20
17.412379763209579
30
-0.49999999999999994
11
18.473238913245538
21
17.412379763209579
31
-0.49999999999999994
0
LINE
5
277
100
AcDbEntity
8
0
100
AcDbLine
10
17.946476211353318
20
17.499999999999993
30
-0.49999999999999994
11
18.040226211353318
21
17.337620236790418
31
-0.49999999999999994
0
LINE
5
278
100
AcDbEntity
8
0
100
AcDbLine
10
17.607213509461097
20
21.912379763209579
30
-0.49999999999999994
11
17.513463509461097
21
21.749999999999996
31
-0.49999999999999994
0
LINE
5
279
100
AcDbEntity
8
0
100
AcDbLine
10
18.660738913245538
20
16.087620236790414
30
-0.49999999999999994
11
18.754488913245538
21
16.249999999999996
31
-0.49999999999999994
0
LINE
5
280
100
AcDbEntity
8
0
100
AcDbLine
10
17.513463509461097
20
21.749999999999996
30
-0.49999999999999994
11
17.607213509461097
21
21.587620236790411
31
-0.49999999999999994
0
LINE
5
281
100
AcDbEntity
8
0
100
AcDbLine
10
16.308175403784436
20
19.162379763209579
30
-0.49999999999999994
11
16.214425403784436
21
18.999999999999996
31
-0.49999999999999994
0
LINE
5
282
100
AcDbEntity
8
0
100
AcDbLine
10
17.080450807568877
20
16.999999999999996
30
-0.49999999999999994
11
17.174200807568877
21
16.837620236790414
31
-0.49999999999999994
0
LINE
5
283
100
AcDbEntity
8
0
100
AcDbLine
10
17.607213509461097
20
21.587620236790411
30
-0.49999999999999994
11
17.794713509461097
21
21.587620236790411
31
-0.49999999999999994
0
LINE
5
284
100
AcDbEntity
8
0
100
AcDbLine
10
18.040226211353318
20
21.337620236790414
30
-0.49999999999999994
11
18.227726211353318
21
21.337620236790414
31
-0.49999999999999994
0
LINE
5
285
100
AcDbEntity
8
0
100
AcDbLine
10
17.607213509461097
20
19.412379763209579
30
-0.49999999999999994
11
17.513463509461097
21
19.249999999999996
31
-0.49999999999999994
0
LINE
5
286
100
AcDbEntity
8
0
100
AcDbLine
10
16.495675403784436
20
22.162379763209575
30
-0.49999999999999994
11
16.308175403784436
21
22.162379763209575
31
-0.49999999999999994
0
LINE
5
287
100
AcDbEntity
8
0
100
AcDbLine
10
17.174200807568877
20
18.662379763209575
30
-0.49999999999999994
11
17.080450807568877
21
18.499999999999996
31
-0.49999999999999994
0
LINE
5
288
100
AcDbEntity
8
0
100
AcDbLine
10
17.174200807568877
20
17.162379763209575
30
-0.49999999999999994
11
17.080450807568877
21
16.999999999999996
31
-0.49999999999999994
0
LINE
5
289
100
AcDbEntity
8
0
100
AcDbLine
10
17.794713509461097
20
21.587620236790411
30
-0.49999999999999994
11
17.888463509461097
21
21.749999999999996
31
-0.49999999999999994
0
LINE
5
290
100
AcDbEntity
8
0
100
AcDbLine
10
16.214425403784436
20
17.999999999999996
30
-0.49999999999999994
11
16.308175403784436
21
17.837620236790414
31
-0.49999999999999994
0
LINE
5
291
100
AcDbEntity
8
0
100
AcDbLine
10
16.308175403784436
20
19.837620236790414
30
-0.49999999999999994
11
16.495675403784436
21
19.837620236790414
31
-0.49999999999999994
0
LINE
5
292
100
AcDbEntity
8
0
100
AcDbLine
10
18.660738913245538
20
16.412379763209575
30
-0.49999999999999994
11
18.473238913245538
21
16.412379763209575
31
-0.49999999999999994
0
LINE
5
293
100
AcDbEntity
8
0
100
AcDbLine
10
18.321476211353318
20
19.999999999999996
30
-0.49999999999999994
11
18.227726211353318
21
20.162379763209579
31
-0.49999999999999994
0
LINE
5
294
100
AcDbEntity
8
0
100
AcDbLine
10
17.361700807568877
20
18.337620236790418
30
-0.49999999999999994
11
17.455450807568877
21
18.499999999999996
31
-0.49999999999999994
0
LINE
5
295
100
AcDbEntity
8
0
100
AcDbLine
10
16.741188105676656
20
21.412379763209575
30
-0.49999999999999994
11
16.647438105676656
21
21.25
31
-0.49999999999999994
0
LINE
5
296
100
AcDbEntity
8
0
100
AcDbLine
10
16.495675403784436
20
18.837620236790414
30
-0.49999999999999994
11
16.589425403784436
21
18.999999999999996
31
-0.49999999999999994
0
LINE
5
297
100
AcDbEntity
8
0
100
AcDbLine
10
18.379488913245538
20
20.249999999999996
30
-0.49999999999999994
11
18.473238913245538
21
20.087620236790418
31
-0.49999999999999994
0
LINE
5
298
100
AcDbEntity
8
0
100
AcDbLine
10
16.495675403784436
20
19.337620236790414
30
-0.49999999999999994
11
16.589425403784436
21
19.5
31
-0.49999999999999994
0
LINE
5
299
100
AcDbEntity
8
0
100
AcDbLine
10
18.660738913245538
20
19.587620236790414
30
-0.49999999999999994
11
18.754488913245538
21
19.749999999999996
31
-0.49999999999999994
0
LINE
5
300
100
AcDbEntity
8
0
100
AcDbLine
10
16.495675403784436
20
18.337620236790418
30
-0.49999999999999994
11
16.589425403784436
21
18.499999999999996
31
-0.49999999999999994
0
LINE
5
301
100
AcDbEntity
8
0
100
AcDbLine
10
17.794713509461097
20
16.587620236790418
30
-0.49999999999999994
11
17.888463509461097
21
16.749999999999993
31
-0.49999999999999994
0
LINE
5
302
100
AcDbEntity
8
0
100
AcDbLine
10
16.214425403784436
20
21.499999999999996
30
-0.49999999999999994
11
16.308175403784436
21
21.337620236790414
31
-0.49999999999999994
0
LINE
5
303
100
AcDbEntity
8
0
100
AcDbLine
10
18.040226211353318
20
22.162379763209575
30
-0.49999999999999994
11
17.946476211353318
21
21.999999999999996
31
-0.49999999999999994
0
LINE
5
304
100
AcDbEntity
8
0
100
AcDbLine
10
17.946476211353318
20
19.999999999999996
30
-0.49999999999999994
11
18.040226211353318
21
19.837620236790414
31
-0.49999999999999994
0
LINE
5
305
100
AcDbEntity
8
0
100
AcDbLine
10
16.308175403784436
20
19.337620236790414
30
-0.49999999999999994
11
16.495675403784436
21
19.337620236790414
31
-0.49999999999999994
0
LINE
5
306
100
AcDbEntity
8
0
100
AcDbLine
10
18.040226211353318
20
17.662379763209579
30
-0.49999999999999994
11
17.946476211353318
21
17.499999999999993
31
-0.49999999999999994
0
LINE
5
307
100
AcDbEntity
8
0
100
AcDbLine
10
16.589425403784436
20
19.5
30
-0.49999999999999994
11
16.495675403784436
21
19.662379763209575
31
-0.49999999999999994
0
LINE
5
308
100
AcDbEntity
8
0
100
AcDbLine
10
16.647438105676656
20
16.249999999999996
30
-0.49999999999999994
11
16.741188105676656
21
16.087620236790414
31
-0.49999999999999994
0
LINE
5
309
100
AcDbEntity
8
0
100
AcDbLine
10
16.589425403784436
20
18.999999999999996
30
-0.49999999999999994
11
16.495675403784436
21
19.162379763209579
31
-0.49999999999999994
0
LINE
5
310
100
AcDbEntity
8
0
100
AcDbLine
10
16.495675403784436
20
19.662379763209575
30
-0.49999999999999994
11
16.308175403784436
21
19.662379763209575
31
-0.49999999999999994
0
LINE
5
311
100
AcDbEntity
8
0
100
AcDbLine
10
17.946476211353318
20
18.999999999999996
30
-0.49999999999999994
11
18.040226211353318
21
18.837620236790414
31
-0.49999999999999994
0
LINE
5
312
100
AcDbEntity
8
0
100
AcDbLine
10
18.040226211353318
20
19.662379763209575
30
-0.49999999999999994
11
17.946476211353318
21
19.5
31
-0.49999999999999994
0
LINE
5
313
100
AcDbEntity
8
0
100
AcDbLine
10
18.227726211353318
20
20.337620236790414
30
-0.49999999999999994
11
18.321476211353318
21
20.5
31
-0.49999999999999994
0
LINE
5
314
100
AcDbEntity
8
0
100
AcDbLine
10
18.227726211353318
20
19.337620236790414
30
-0.49999999999999994
11
18.321476211353318
21
19.5
31
-0.49999999999999994
0
LINE
5
315
100
AcDbEntity
8
0
100
AcDbLine
10
18.660738913245538
20
20.412379763209575
30
-0.49999999999999994
11
18.473238913245538
21
20.412379763209575
31
-0.49999999999999994
0
LINE
5
316
100
AcDbEntity
8
0
100
AcDbLine
10
16.308175403784436
20
21.337620236790414
30
-0.49999999999999994
11
16.495675403784436
21
21.337620236790414
31
-0.49999999999999994
0
LINE
5
317
100
AcDbEntity
8
0
100
AcDbLine
10
16.308175403784436
20
17.662379763209579
30
-0.49999999999999994
11
16.214425403784436
21
17.499999999999993
31
-0.49999999999999994
0
LINE
5
318
100
AcDbEntity
8
0
100
AcDbLine
10
17.513463509461097
20
16.749999999999993
30
-0.49999999999999994
11
17.607213509461097
21
16.587620236790418
31
-0.49999999999999994
0
LINE
5
319
100
AcDbEntity
8
0
100
AcDbLine
10
17.513463509461097
20
19.749999999999996
30
-0.49999999999999994
11
17.607213509461097
21
19.587620236790414
31
-0.49999999999999994
0
LINE
5
320
100
AcDbEntity
8
0
100
AcDbLine
10
17.174200807568877
20
17.337620236790418
30
-0.49999999999999994
11
17.361700807568877
21
17.337620236790418
31
-0.49999999999999994
0
LINE
5
321
100
AcDbEntity
8
0
100
AcDbLine
10
16.589425403784436
20
20.999999999999996
30
-0.49999999999999994
11
16.495675403784436
21
21.162379763209579
31
-0.49999999999999994
0
LINE
5
322
100
AcDbEntity
8
0
100
AcDbLine
10
16.214425403784436
20
20.999999999999996
30
-0.49999999999999994
11
16.308175403784436
21
20.837620236790418
31
-0.49999999999999994
0
LINE
5
323
100
AcDbEntity
8
0
100
AcDbLine
10
17.794713509461097
20
21.412379763209575
30
-0.49999999999999994
11
17.607213509461097
21
21.412379763209575
31
-0.49999999999999994
0
LINE
5
324
100
AcDbEntity
8
0
100
AcDbLine
10
17.455450807568877
20
21.999999999999996
30
-0.49999999999999994
11
17.361700807568877
21
22.162379763209575
31
-0.49999999999999994
0
LINE
5
325
100
AcDbEntity
8
0
100
AcDbLine
10
18.473238913245538
20
20.087620236790418
30
-0.49999999999999994
11
18.660738913245538
21
20.087620236790418
31
-0.49999999999999994
0
LINE
5
326
100
AcDbEntity
8
0
100
AcDbLine
10
16.495675403784436
20
17.662379763209579
30
-0.49999999999999994
11
16.308175403784436
21
17.662379763209579
31
-0.49999999999999994
0
LINE
5
327
100
AcDbEntity
8
0
100
AcDbLine
10
17.888463509461097
20
19.249999999999996
30
-0.49999999999999994
11
17.794713509461097
21
19.412379763209579
31
-0.49999999999999994
0
LINE
5
328
100
AcDbEntity
8
0
100
AcDbLine
10
18.473238913245538
20
19.412379763209579
30
-0.49999999999999994
11
18.379488913245538
21
19.249999999999996
31
-0.49999999999999994
0
LINE
5
329
100
AcDbEntity
8
0
100
AcDbLine
10
16.308175403784436
20
19.662379763209575
30
-0.49999999999999994
11
16.214425403784436
21
19.5
31
-0.49999999999999994
0
LINE
5
330
100
AcDbEntity
8
0
100
AcDbLine
10
17.607213509461097
20
16.412379763209575
30
-0.49999999999999994
11
17.513463509461097
21
16.249999999999996
31
-0.49999999999999994
0
LINE
5
331
100
AcDbEntity
8
0
100
AcDbLine
10
18.321476211353318
20
20.5
30
-0.49999999999999994
11
18.227726211353318
21
20.662379763209575
31
-0.49999999999999994
0
LINE
5
332
100
AcDbEntity
8
0
100
AcDbLine
10
16.928688105676656
20
21.912379763209579
30
-0.49999999999999994
11
16.741188105676656
21
21.912379763209579
31
-0.49999999999999994
0
LINE
5
333
100
AcDbEntity
8
0
100
AcDbLine
10
18.473238913245538
20
18.912379763209575
30
-0.49999999999999994
11
18.379488913245538
21
18.75
31
-0.49999999999999994
0
LINE
5
334
100
AcDbEntity
8
0
100
AcDbLine
10
17.174200807568877
20
20.837620236790418
30
-0.49999999999999994
11
17.361700807568877
21
20.837620236790418
31
-0.49999999999999994
0
LINE
5
335
100
AcDbEntity
8
0
100
AcDbLine
10
16.928688105676656
20
19.587620236790414
30
-0.49999999999999994
11
17.022438105676656
21
19.749999999999996
31
-0.49999999999999994
0
LINE
5
336
100
AcDbEntity
8
0
100
AcDbLine
10
17.361700807568877
20
16.837620236790414
30
-0.49999999999999994
11
17.455450807568877
21
16.999999999999996
31
-0.49999999999999994
0
LINE
5
337
100
AcDbEntity
8
0
100
AcDbLine
10
16.741188105676656
20
17.587620236790414
30
-0.49999999999999994
11
16.928688105676656
21
17.587620236790414
31
-0.49999999999999994
0
LINE
5
338
100
AcDbEntity
8
0
100
AcDbLine
10
18.227726211353318
20
19.662379763209575
30
-0.49999999999999994
11
18.040226211353318
21
19.662379763209575
31
-0.49999999999999994
0
LINE
5
339
100
AcDbEntity
8
0
100
AcDbLine
10
16.928688105676656
20
18.587620236790414
30
-0.49999999999999994
11
17.022438105676656
21
18.75
31
-0.49999999999999994
0
LINE
5
340
100
AcDbEntity
8
0
100
AcDbLine
10
17.174200807568877
20
19.162379763209579
30
-0.49999999999999994
11
17.080450807568877
21
18.999999999999996
31
-0.49999999999999994
0
LINE
5
341
100
AcDbEntity
8
0
100
AcDbLine
10
16.928688105676656
20
18.912379763209575
30
-0.49999999999999994
11
16.741188105676656
21
18.912379763209575
31
-0.49999999999999994
0
LINE
5
342
100
AcDbEntity
8
0
100
AcDbLine
10
16.928688105676656
20
20.412379763209575
30
-0.49999999999999994
11
16.741188105676656
21
20.412379763209575
31
-0.49999999999999994
0
LINE
5
343
100
AcDbEntity
8
0
100
AcDbLine
10
18.227726211353318
20
16.337620236790418
30
-0.49999999999999994
11
18.321476211353318
21
16.499999999999993
31
-0.49999999999999994
0
LINE
5
344
100
AcDbEntity
8
0
100
AcDbLine
10
17.174200807568877
20
18.837620236790414
30
-0.49999999999999994
11
17.361700807568877
21
18.837620236790414
31
-0.49999999999999994
0
LINE
5
345
100
AcDbEntity
8
0
100
AcDbLine
10
18.321476211353318
20
21.999999999999996
30
-0.49999999999999994
11
18.227726211353318
21
22.162379763209575
31
-0.49999999999999994
0
LINE
5
346
100
AcDbEntity
8
0
100
AcDbLine
10
16.741188105676656
20
19.087620236790418
30
-0.49999999999999994
11
16.928688105676656
21
19.087620236790418
31
-0.49999999999999994
0
LINE
5
347
100
AcDbEntity
8
0
100
AcDbLine
10
17.174200807568877
20
21.662379763209575
30
-0.49999999999999994
11
17.080450807568877
21
21.499999999999996
31
-0.49999999999999994
0
LINE
5
348
100
AcDbEntity
8
0
100
AcDbLine
10
17.607213509461097
20
18.087620236790414
30
-0.49999999999999994
11
17.794713509461097
21
18.087620236790414
31
-0.49999999999999994
0
LINE
5
349
100
AcDbEntity
8
0
100
AcDbLine
10
18.040226211353318
20
18.337620236790418
30
-0.49999999999999994
11
18.227726211353318
21
18.337620236790418
31
-0.49999999999999994
0
LINE
5
350
100
AcDbEntity
8
0
100
AcDbLine
10
18.660738913245538
20
17.087620236790414
30
-0.49999999999999994
11
18.754488913245538
21
17.249999999999996
31
-0.49999999999999994
0
LINE
5
351
100
AcDbEntity
8
0
100
AcDbLine
10
18.379488913245538
20
16.249999999999996
30
-0.49999999999999994
11
18.473238913245538
21
16.087620236790414
31
-0.49999999999999994
0
LINE
5
352
100
AcDbEntity
8
0
100
AcDbLine
10
16.308175403784436
20
18.662379763209575
30
-0.49999999999999994
11
16.214425403784436
21
18.499999999999996
31
-0.49999999999999994
0
LINE
5
353
100
AcDbEntity
8
0
100
AcDbLine
10
17.946476211353318
20
15.999999999999993
30
-0.49999999999999994
11
18.040226211353318
21
15.837620236790416
31
-0.49999999999999994
0
LINE
5
354
100
AcDbEntity
8
0
100
AcDbLine
10
18.660738913245538
20
16.587620236790418
30
-0.49999999999999994
11
18.754488913245538
21
16.749999999999993
31
-0.49999999999999994
0
LINE
5
355
100
AcDbEntity
8
0
100
AcDbLine
10
17.174200807568877
20
16.837620236790414
30
-0.49999999999999994
11
17.361700807568877
21
16.837620236790414
31
-0.49999999999999994
0
LINE
5
356
100
AcDbEntity
8
0
100
AcDbLine
10
17.361700807568877
20
17.337620236790418
30
-0.49999999999999994
11
17.455450807568877
21
17.499999999999993
31
-0.49999999999999994
0
LINE
5
357
100
AcDbEntity
8
0
100
AcDbLine
10
17.607213509461097
20
20.087620236790418
30
-0.49999999999999994
11
17.794713509461097
21
20.087620236790418
31
-0.49999999999999994
0
LINE
5
358
100
AcDbEntity
8
0
100
AcDbLine
10
16.928688105676656
20
20.912379763209575
30
-0.49999999999999994
11
16.741188105676656
21
20.912379763209575
31
-0.49999999999999994
0
LINE
5
359
100
AcDbEntity
8
0
100
AcDbLine
10
17.080450807568877
20
18.499999999999996
30
-0.49999999999999994
11
17.174200807568877
21
18.337620236790418
31
-0.49999999999999994
0
LINE
5
360
100
AcDbEntity
8
0
100
AcDbLine
10
16.741188105676656
20
20.412379763209575
30
-0.49999999999999994
11
16.647438105676656
21
20.249999999999996
31
-0.49999999999999994
0
LINE
5
361
100
AcDbEntity
8
0
100
AcDbLine
10
16.741188105676656
20
20.087620236790418
30
-0.49999999999999994
11
16.928688105676656
21
20.087620236790418
31
-0.49999999999999994
0
LINE
5
362
100
AcDbEntity
8
0
100
AcDbLine
10
16.495675403784436
20
17.337620236790418
30
-0.49999999999999994
11
16.589425403784436
21
17.499999999999993
31
-0.49999999999999994
0
LINE
5
363
100
AcDbEntity
8
0
100
AcDbLine
10
17.888463509461097
20
20.749999999999996
30
-0.49999999999999994
11
17.794713509461097
21
20.912379763209575
31
-0.49999999999999994
0
LINE
5
364
100
AcDbEntity
8
0
100
AcDbLine
10
17.513463509461097
20
20.249999999999996
30
-0.49999999999999994
11
17.607213509461097
21
20.087620236790418
31
-0.49999999999999994
0
LINE
5
365
100
AcDbEntity
8
0
100
AcDbLine
10
17.794713509461097
20
17.087620236790414
30
-0.49999999999999994
11
17.888463509461097
21
17.249999999999996
31
-0.49999999999999994
0
LINE
5
366
100
AcDbEntity
8
0
100
AcDbLine
10
18.754488913245538
20
17.75
30
-0.49999999999999994
11
18.660738913245538
21
17.912379763209575
31
-0.49999999999999994
0
LINE
5
367
100
AcDbEntity
8
0
100
AcDbLine
10
18.473238913245538
20
17.087620236790414
30
-0.49999999999999994
11
18.660738913245538
21
17.087620236790414
31
-0.49999999999999994
0
LINE
5
368
100
AcDbEntity
8
0
100
AcDbLine
10
16.928688105676656
20
19.912379763209575
30
-0.49999999999999994
11
16.741188105676656
21
19.912379763209575
31
-0.49999999999999994
0
LINE
5
369
100
AcDbEntity
8
0
100
AcDbLine
10
18.040226211353318
20
19.837620236790414
30
-0.49999999999999994
11
18.227726211353318
21
19.837620236790414
31
-0.49999999999999994
0
LINE
5
370
100
AcDbEntity
8
0
100
AcDbLine
10
18.227726211353318
20
17.337620236790418
30
-0.49999999999999994
11
18.321476211353318
21
17.499999999999993
31
-0.49999999999999994
0
LINE
5
371
100
AcDbEntity
8
0
100
AcDbLine
10
18.379488913245538
20
20.749999999999996
30
-0.49999999999999994
11
18.473238913245538
21
20.587620236790414
31
-0.49999999999999994
0
LINE
5
372
100
AcDbEntity
8
0
100
AcDbLine
10
16.589425403784436
20
16.999999999999996
30
-0.49999999999999994
11
16.495675403784436
21
17.162379763209575
31
-0.49999999999999994
0
LINE
5
373
100
AcDbEntity
8
0
100
AcDbLine
10
16.214425403784436
20
16.999999999999996
30
-0.49999999999999994
11
16.308175403784436
21
16.837620236790414
31
-0.49999999999999994
0
LINE
5
374
100
AcDbEntity
8
0
100
AcDbLine
10
18.660738913245538
20
18.412379763209579
30
-0.49999999999999994
11
18.473238913245538
21
18.412379763209579
31
-0.49999999999999994
0
LINE
5
375
100
AcDbEntity
8
0
100
AcDbLine
10
16.741188105676656
20
18.087620236790414
30
-0.49999999999999994
11
16.928688105676656
21
18.087620236790414
31
-0.49999999999999994
0
LINE
5
376
100
AcDbEntity
8
0
100
AcDbLine
10
18.227726211353318
20
15.837620236790416
30
-0.49999999999999994
11
18.321476211353318
21
15.999999999999993
31
-0.49999999999999994
0
LINE
5
377
100
AcDbEntity
8
0
100
AcDbLine
10
17.455450807568877
20
17.499999999999993
30
-0.49999999999999994
11
17.361700807568877
21
17.662379763209579
31
-0.49999999999999994
0
LINE
5
378
100
AcDbEntity
8
0
100
AcDbLine
10
18.473238913245538
20
20.912379763209575
30
-0.49999999999999994
11
18.379488913245538
21
20.749999999999996
31
-0.49999999999999994
0
LINE
5
379
100
AcDbEntity
8
0
100
AcDbLine
10
18.040226211353318
20
16.162379763209575
30
-0.49999999999999994
11
17.946476211353318
21
15.999999999999993
31
-0.49999999999999994
0
LINE
5
380
100
AcDbEntity
8
0
100
AcDbLine
10
18.754488913245538
20
18.75
30
-0.49999999999999994
11
18.660738913245538
21
18.912379763209575
31
-0.49999999999999994
0
LINE
5
381
100
AcDbEntity
8
0
100
AcDbLine
10
17.174200807568877
20
16.162379763209575
30
-0.49999999999999994
11
17.080450807568877
21
15.999999999999993
31
-0.49999999999999994
0
LINE
5
382
100
AcDbEntity
8
0
100
AcDbLine
10
17.080450807568877
20
17.999999999999996
30
-0.49999999999999994
11
17.174200807568877
21
17.837620236790414
31
-0.49999999999999994
0
LINE
5
383
100
AcDbEntity
8
0
100
AcDbLine
10
17.794713509461097
20
17.587620236790414
30
-0.49999999999999994
11
17.888463509461097
21
17.75
31
-0.49999999999999994
0
LINE
5
384
100
AcDbEntity
8
0
100
AcDbLine
10
17.607213509461097
20
21.087620236790414
30
-0.49999999999999994
11
17.794713509461097
21
21.087620236790414
31
-0.49999999999999994
0
LINE
5
385
100
AcDbEntity
8
0
100
AcDbLine
10
17.174200807568877
20
17.662379763209579
30
-0.49999999999999994
11
17.080450807568877
21
17.499999999999993
31
-0.49999999999999994
0
LINE
5
386
100
AcDbEntity
8
0
100
AcDbLine
10
16.647438105676656
20
20.749999999999996
30
-0.49999999999999994
11
16.741188105676656
21
20.587620236790414
31
-0.49999999999999994
0
LINE
5
387
100
AcDbEntity
8
0
100
AcDbLine
10
18.040226211353318
20
16.337620236790418
30
-0.49999999999999994
11
18.227726211353318
21
16.337620236790418
31
-0.49999999999999994
0
LINE
5
388
100
AcDbEntity
8
0
100
AcDbLine
10
18.040226211353318
20
21.162379763209579
30
-0.49999999999999994
11
17.946476211353318
21
20.999999999999996
31
-0.49999999999999994
0
LINE
5
389
100
AcDbEntity
8
0
100
AcDbLine
10
17.455450807568877
20
20.999999999999996
30
-0.49999999999999994
11
17.361700807568877
21
21.162379763209579
31
-0.49999999999999994
0
LINE
5
390
100
AcDbEntity
8
0
100
AcDbLine
10
17.361700807568877
20
20.837620236790418
30
-0.49999999999999994
11
17.455450807568877
21
20.999999999999996
31
-0.49999999999999994
0
LINE
5
391
100
AcDbEntity
8
0
100
AcDbLine
10
16.647438105676656
20
18.75
30
-0.49999999999999994
11
16.741188105676656
21
18.587620236790414
31
-0.49999999999999994
0
LINE
5
392
100
AcDbEntity
8
0
100
AcDbLine
10
17.794713509461097
20
19.587620236790414
30
-0.49999999999999994
11
17.888463509461097
21
19.749999999999996
31
-0.49999999999999994
0
LINE
5
393
100
AcDbEntity
8
0
100
AcDbLine
10
16.647438105676656
20
20.249999999999996
30
-0.49999999999999994
11
16.741188105676656
21
20.087620236790418
31
-0.49999999999999994
0
LINE
5
394
100
AcDbEntity
8
0
100
AcDbLine
10
17.455450807568877
20
18.499999999999996
30
-0.49999999999999994
11
17.361700807568877
21
18.662379763209575
31
-0.49999999999999994
0
LINE
5
395
100
AcDbEntity
8
0
100
AcDbLine
10
17.022438105676656
20
18.75
30
-0.49999999999999994
11
16.928688105676656
21
18.912379763209575
31
-0.49999999999999994
0
LINE
5
396
100
AcDbEntity
8
0
100
AcDbLine
10
17.455450807568877
20
17.999999999999996
30
-0.49999999999999994
11
17.361700807568877
21
18.162379763209575
31
-0.49999999999999994
0
LINE
5
397
100
AcDbEntity
8
0
100
AcDbLine
10
16.741188105676656
20
21.087620236790414
30
-0.49999999999999994
11
16.928688105676656
21
21.087620236790414
31
-0.49999999999999994
0
LINE
5
398
100
AcDbEntity
8
0
100
AcDbLine
10
18.321476211353318
20
21.499999999999996
30
-0.49999999999999994
11
18.227726211353318
21
21.662379763209575
31
-0.49999999999999994
0
LINE
5
399
100
AcDbEntity
8
0
100
AcDbLine
10
18.321476211353318
20
15.999999999999993
30
-0.49999999999999994
11
18.227726211353318
21
16.162379763209575
31
-0.49999999999999994
0
LINE
5
400
100
AcDbEntity
8
0
100
AcDbLine
10
18.040226211353318
20
18.837620236790414
30
-0.49999999999999994
11
18.227726211353318
21
18.837620236790414
31
-0.49999999999999994
0
LINE
5
401
100
AcDbEntity
8
0
100
AcDbLine
10
17.946476211353318
20
20.999999999999996
30
-0.49999999999999994
11
18.040226211353318
21
20.837620236790418
31
-0.49999999999999994
0
LINE
5
402
100
AcDbEntity
8
0
100
AcDbLine
10
17.794713509461097
20
19.087620236790418
30
-0.49999999999999994
11
17.888463509461097
21
19.249999999999996
31
-0.49999999999999994
0
LINE
5
403
100
AcDbEntity
8
0
100
AcDbLine
10
17.513463509461097
20
17.249999999999996
30
-0.49999999999999994
11
17.607213509461097
21
17.087620236790414
31
-0.49999999999999994
0
LINE
5
404
100
AcDbEntity
8
0
100
AcDbLine
10
16.589425403784436
20
16.499999999999993
30
-0.49999999999999994
11
16.495675403784436
21
16.662379763209579
31
-0.49999999999999994
0
LINE
5
405
100
AcDbEntity
8
0
100
AcDbLine
10
16.495675403784436
20
16.337620236790418
30
-0.49999999999999994
11
16.589425403784436
21
16.499999999999993
31
-0.49999999999999994
0
LINE
5
406
100
AcDbEntity
8
0
100
AcDbLine
10
18.660738913245538
20
20.587620236790414
30
-0.49999999999999994
11
18.754488913245538
21
20.749999999999996
31
-0.49999999999999994
0
LINE
5
407
100
AcDbEntity
8
0
100
AcDbLine
10
16.647438105676656
20
17.75
30
-0.49999999999999994
11
16.741188105676656
21
17.587620236790414
31
-0.49999999999999994
0
LINE
5
408
100
AcDbEntity
8
0
100
AcDbLine
10
18.040226211353318
20
17.337620236790418
30
-0.49999999999999994
11
18.227726211353318
21
17.337620236790418
31
-0.49999999999999994
0
LINE
5
409
100
AcDbEntity
8
0
100
AcDbLine
10
17.946476211353318
20
17.999999999999996
30
-0.49999999999999994
11
18.040226211353318
21
17.837620236790414
31
-0.49999999999999994
0
LINE
5
410
100
AcDbEntity
8
0
100
AcDbLine
10
17.080450807568877
20
21.499999999999996
30
-0.49999999999999994
11
17.174200807568877
21
21.337620236790414
31
-0.49999999999999994
0
LINE
5
411
100
AcDbEntity
8
0
100
AcDbLine
10
17.361700807568877
20
17.837620236790414
30
-0.49999999999999994
11
17.455450807568877
21
17.999999999999996
31
-0.49999999999999994
0
LINE
5
412
100
AcDbEntity
8
0
100
AcDbLine
10
18.040226211353318
20
18.162379763209575
30
-0.49999999999999994
11
17.946476211353318
21
17.999999999999996
31
-0.49999999999999994
0
LINE
5
413
100
AcDbEntity
8
0
100
AcDbLine
10
17.946476211353318
20
16.999999999999996
30
-0.49999999999999994
11
18.040226211353318
21
16.837620236790414
31
-0.49999999999999994
0
LINE
5
414
100
AcDbEntity
8
0
100
AcDbLine
10
16.928688105676656
20
20.087620236790418
30
-0.49999999999999994
11
17.022438105676656
21
20.249999999999996
31
-0.49999999999999994
0
LINE
5
415
100
AcDbEntity
8
0
100
AcDbLine
10
17.361700807568877
20
17.162379763209575
30
-0.49999999999999994
11
17.174200807568877
21
17.162379763209575
31
-0.49999999999999994
0
LINE
5
416
100
AcDbEntity
8
0
100
AcDbLine
10
17.361700807568877
20
19.837620236790414
30
-0.49999999999999994
11
17.455450807568877
21
19.999999999999996
31
-0.49999999999999994
0
LINE
5
417
100
AcDbEntity
8
0
100
AcDbLine
10
17.174200807568877
20
19.837620236790414
30
-0.49999999999999994
11
17.361700807568877
21
19.837620236790414
31
-0.49999999999999994
0
LINE
5
418
100
AcDbEntity
8
0
100
AcDbLine
10
17.794713509461097
20
20.412379763209575
30
-0.49999999999999994
11
17.607213509461097
21
20.412379763209575
31
-0.49999999999999994
0
LINE
5
419
100
AcDbEntity
8
0
100
AcDbLine
10
16.647438105676656
20
18.249999999999996
30
-0.49999999999999994
11
16.741188105676656
21
18.087620236790414
31
-0.49999999999999994
0
LINE
5
420
100
AcDbEntity
8
0
100
AcDbLine
10
18.473238913245538
20
17.912379763209575
30
-0.49999999999999994
11
18.379488913245538
21
17.75
31
-0.49999999999999994
0
LINE
5
421
100
AcDbEntity
8
0
100
AcDbLine
10
16.741188105676656
20
19.912379763209575
30
-0.49999999999999994
11
16.647438105676656
21
19.749999999999996
31
-0.49999999999999994
0
LINE
5
422
100
AcDbEntity
8
0
100
AcDbLine
10
16.214425403784436
20
20.5
30
-0.49999999999999994
11
16.308175403784436
21
20.337620236790414
31
-0.49999999999999994
0
LINE
5
423
100
AcDbEntity
8
0
100
AcDbLine
10
17.174200807568877
20
21.837620236790411
30
-0.49999999999999994
11
17.361700807568877
21
21.837620236790411
31
-0.49999999999999994
0
LINE
5
424
100
AcDbEntity
8
0
100
AcDbLine
10
17.174200807568877
20
15.837620236790416
30
-0.49999999999999994
11
17.361700807568877
21
15.837620236790416
31
-0.49999999999999994
0
LINE
5
425
100
AcDbEntity
8
0
100
AcDbLine
10
17.361700807568877
20
21.662379763209575
30
-0.49999999999999994
11
17.174200807568877
21
21.662379763209575
31
-0.49999999999999994
0
LINE
5
426
100
AcDbEntity
8
0
100
AcDbLine
10
17.455450807568877
20
15.999999999999993
30
-0.49999999999999994
11
17.361700807568877
21
16.162379763209575
31
-0.49999999999999994
0
LINE
5
427
100
AcDbEntity
8
0
100
AcDbLine
10
17.361700807568877
20
16.162379763209575
30
-0.49999999999999994
11
17.174200807568877
21
16.162379763209575
31
-0.49999999999999994
0
LINE
5
428
100
AcDbEntity
8
0
100
AcDbLine
10
18.379488913245538
20
17.75
30
-0.49999999999999994
11
18.473238913245538
21
17.587620236790414
31
-0.49999999999999994
0
LINE
5
429
100
AcDbEntity
8
0
100
AcDbLine
10
17.455450807568877
20
19.999999999999996
30
-0.49999999999999994
11
17.361700807568877
21
20.162379763209579
31
-0.49999999999999994
0
LINE
5
430
100
AcDbEntity
8
0
100
AcDbLine
10
17.607213509461097
20
17.587620236790414
30
-0.49999999999999994
11
17.794713509461097
21
17.587620236790414
31
-0.49999999999999994
0
LINE
5
431
100
AcDbEntity
8
0
100
AcDbLine
10
17.888463509461097
20
16.749999999999993
30
-0.49999999999999994
11
17.794713509461097
21
16.912379763209575
31
-0.49999999999999994
0
LINE
5
432
100
AcDbEntity
8
0
100
AcDbLine
10
17.174200807568877
20
20.162379763209579
30
-0.49999999999999994
11
17.080450807568877
21
19.999999999999996
31
-0.49999999999999994
0
LINE
5
433
100
AcDbEntity
8
0
100
AcDbLine
10
16.741188105676656
20
20.587620236790414
30
-0.49999999999999994
11
16.928688105676656
21
20.587620236790414
31
-0.49999999999999994
0
LINE
5
434
100
AcDbEntity
8
0
100
AcDbLine
10
16.928688105676656
20
16.087620236790414
30
-0.49999999999999994
11
17.022438105676656
21
16.249999999999996
31
-0.49999999999999994
0
LINE
5
435
100
AcDbEntity
8
0
100
AcDbLine
10
17.607213509461097
20
16.912379763209575
30
-0.49999999999999994
11
17.513463509461097
21
16.749999999999993
31
-0.49999999999999994
0
LINE
5
436
100
AcDbEntity
8
0
100
AcDbLine
10
18.227726211353318
20
19.837620236790414
30
-0.49999999999999994
11
18.321476211353318
21
19.999999999999996
31
-0.49999999999999994
0
LINE
5
437
100
AcDbEntity
8
0
100
AcDbLine
10
17.361700807568877
20
18.662379763209575
30
-0.49999999999999994
11
17.174200807568877
21
18.662379763209575
31
-0.49999999999999994
0
LINE
5
438
100
AcDbEntity
8
0
100
AcDbLine
10
16.647438105676656
20
19.749999999999996
30
-0.49999999999999994
11
16.741188105676656
21
19.587620236790414
31
-0.49999999999999994
0
LINE
5
439
100
AcDbEntity
8
0
100
AcDbLine
10
17.361700807568877
20
17.662379763209579
30
-0.49999999999999994
11
17.174200807568877
21
17.662379763209579
31
-0.49999999999999994
0
LINE
5
440
100
AcDbEntity
8
0
100
AcDbLine
10
18.754488913245538
20
16.749999999999993
30
-0.49999999999999994
11
18.660738913245538
21
16.912379763209575
31
-0.49999999999999994
0
LINE
5
441
100
AcDbEntity
8
0
100
AcDbLine
10
17.946476211353318
20
18.499999999999996
30
-0.49999999999999994
11
18.040226211353318
21
18.337620236790418
31
-0.49999999999999994
0
LINE
5
442
100
AcDbEntity
8
0
100
AcDbLine
10
17.174200807568877
20
16.337620236790418
30
-0.49999999999999994
11
17.361700807568877
21
16.337620236790418
31
-0.49999999999999994
0
LINE
5
443
100
AcDbEntity
8
0
100
AcDbLine
10
17.174200807568877
20
18.337620236790418
30
-0.49999999999999994
11
17.361700807568877
21
18.337620236790418
31
-0.49999999999999994
0
LINE
5
444
100
AcDbEntity
8
0
100
AcDbLine
10
17.022438105676656
20
17.75
30
-0.49999999999999994
11
16.928688105676656
21
17.912379763209575
31
-0.49999999999999994
0
LINE
5
445
100
AcDbEntity
8
0
100
AcDbLine
10
18.040226211353318
20
20.837620236790418
30
-0.49999999999999994
11
18.227726211353318
21
20.837620236790418
31
-0.49999999999999994
0
LINE
5
446
100
AcDbEntity
8
0
100
AcDbLine
10
17.455450807568877
20
16.999999999999996
30
-0.49999999999999994
11
17.361700807568877
21
17.162379763209575
31
-0.49999999999999994
0
LINE
5
447
100
AcDbEntity
8
0
100
AcDbLine
10
18.227726211353318
20
21.162379763209579
30
-0.49999999999999994
11
18.040226211353318
21
21.162379763209579
31
-0.49999999999999994
0
LINE
5
448
100
AcDbEntity
8
0
100
AcDbLine
10
18.040226211353318
20
16.837620236790414
30
-0.49999999999999994
11
18.227726211353318
21
16.837620236790414
31
-0.49999999999999994
0
LINE
5
449
100
AcDbEntity
8
0
100
AcDbLine
10
17.794713509461097
20
16.087620236790414
30
-0.49999999999999994
11
17.888463509461097
21
16.249999999999996
31
-0.49999999999999994
0
LINE
5
450
100
AcDbEntity
8
0
100
AcDbLine
10
16.308175403784436
20
20.337620236790414
30
-0.49999999999999994
11
16.495675403784436
21
20.337620236790414
31
-0.49999999999999994
0
LINE
5
451
100
AcDbEntity
8
0
100
AcDbLine
10
16.495675403784436
20
20.662379763209575
30
-0.49999999999999994
11
16.308175403784436
21
20.662379763209575
31
-0.49999999999999994
0
LINE
5
452
100
AcDbEntity
8
0
100
AcDbLine
10
17.888463509461097
20
17.75
30
-0.49999999999999994
11
17.794713509461097
21
17.912379763209575
31
-0.49999999999999994
0
LINE
5
453
100
AcDbEntity
8
0
100
AcDbLine
10
18.473238913245538
20
16.412379763209575
30
-0.49999999999999994
11
18.379488913245538
21
16.249999999999996
31
-0.49999999999999994
0
LINE
5
454
100
AcDbEntity
8
0
100
AcDbLine
10
18.754488913245538
20
20.749999999999996
30
-0.49999999999999994
11
18.660738913245538
21
20.912379763209575
31
-0.49999999999999994
0
LINE
5
455
100
AcDbEntity
8
0
100
AcDbLine
10
17.080450807568877
20
20.999999999999996
30
-0.49999999999999994
11
17.174200807568877
21
20.837620236790418
31
-0.49999999999999994
0
LINE
5
456
100
AcDbEntity
8
0
100
AcDbLine
10
17.174200807568877
20
21.162379763209579
30
-0.49999999999999994
11
17.080450807568877
21
20.999999999999996
31
-0.49999999999999994
0
LINE
5
457
100
AcDbEntity
8
0
100
AcDbLine
10
17.513463509461097
20
17.75
30
-0.49999999999999994
11
17.607213509461097
21
17.587620236790414
31
-0.49999999999999994
0
LINE
5
458
100
AcDbEntity
8
0
100
AcDbLine
10
18.754488913245538
20
19.749999999999996
30
-0.49999999999999994
11
18.660738913245538
21
19.912379763209575
31
-0.49999999999999994
0
LINE
5
459
100
AcDbEntity
8
0
100
AcDbLine
10
17.946476211353318
20
19.5
30
-0.49999999999999994
11
18.040226211353318
21
19.337620236790414
31
-0.49999999999999994
0
LINE
5
460
100
AcDbEntity
8
0
100
AcDbLine
10
16.495675403784436
20
21.162379763209579
30
-0.49999999999999994
11
16.308175403784436
21
21.162379763209579
31
-0.49999999999999994
0
LINE
5
461
100
AcDbEntity
8
0
100
AcDbLine
10
16.495675403784436
20
16.662379763209579
30
-0.49999999999999994
11
16.308175403784436
21
16.662379763209579
31
-0.49999999999999994
0
LINE
5
462
100
AcDbEntity
8
0
100
AcDbLine
10
17.080450807568877
20
18.999999999999996
30
-0.49999999999999994
11
17.174200807568877
21
18.837620236790414
31
-0.49999999999999994
0
LINE
5
463
100
AcDbEntity
8
0
100
AcDbLine
10
18.040226211353318
20
17.837620236790414
30
-0.49999999999999994
11
18.227726211353318
21
17.837620236790414
31
-0.49999999999999994
0
LINE
5
464
100
AcDbEntity
8
0
100
AcDbLine
10
16.308175403784436
20
17.337620236790418
30
-0.49999999999999994
11
16.495675403784436
21
17.337620236790418
31
-0.49999999999999994
0
LINE
5
465
100
AcDbEntity
8
0
100
AcDbLine
10
16.589425403784436
20
17.999999999999996
30
-0.49999999999999994
11
16.495675403784436
21
18.162379763209575
31
-0.49999999999999994
0
LINE
5
466
100
AcDbEntity
8
0
100
AcDbLine
10
18.321476211353318
20
17.999999999999996
30
-0.49999999999999994
11
18.227726211353318
21
18.162379763209575
31
-0.49999999999999994
0
LINE
5
467
100
AcDbEntity
8
0
100
AcDbLine
10
18.227726211353318
20
19.162379763209579
30
-0.49999999999999994
11
18.040226211353318
21
19.162379763209579
31
-0.49999999999999994
0
LINE
5
468
100
AcDbEntity
8
0
100
AcDbLine
10
17.607213509461097
20
16.587620236790418
30
-0.49999999999999994
11
17.794713509461097
21
16.587620236790418
31
-0.49999999999999994
0
LINE
5
469
100
AcDbEntity
8
0
100
AcDbLine
10
18.040226211353318
20
20.337620236790414
30
-0.49999999999999994
11
18.227726211353318
21
20.337620236790414
31
-0.49999999999999994
0
LINE
5
470
100
AcDbEntity
8
0
100
AcDbLine
10
18.227726211353318
20
21.337620236790414
30
-0.49999999999999994
11
18.321476211353318
21
21.499999999999996
31
-0.49999999999999994
0
LINE
5
471
100
AcDbEntity
8
0
100
AcDbLine
10
17.455450807568877
20
19.5
30
-0.49999999999999994
11
17.361700807568877
21
19.662379763209575
31
-0.49999999999999994
0
LINE
5
472
100
AcDbEntity
8
0
100
AcDbLine
10
17.361700807568877
20
20.162379763209579
30
-0.49999999999999994
11
17.174200807568877
21
20.162379763209579
31
-0.49999999999999994
0
LINE
5
473
100
AcDbEntity
8
0
100
AcDbLine
10
17.361700807568877
20
20.662379763209575
30
-0.49999999999999994
11
17.174200807568877
21
20.662379763209575
31
-0.49999999999999994
0
LINE
5
474
100
AcDbEntity
8
0
100
AcDbLine
10
16.928688105676656
20
19.087620236790418
30
-0.49999999999999994
11
17.022438105676656
21
19.249999999999996
31
-0.49999999999999994
0
LINE
5
475
100
AcDbEntity
8
0
100
AcDbLine
10
17.174200807568877
20
20.337620236790414
30
-0.49999999999999994
11
17.361700807568877
21
20.337620236790414
31
-0.49999999999999994
0
LINE
5
476
100
AcDbEntity
8
0
100
AcDbLine
10
16.928688105676656
20
17.587620236790414
30
-0.49999999999999994
11
17.022438105676656
21
17.75
31
-0.49999999999999994
0
LINE
5
477
100
AcDbEntity
8
0
100
AcDbLine
10
17.022438105676656
20
18.249999999999996
30
-0.49999999999999994
11
16.928688105676656
21
18.412379763209579
31
-0.49999999999999994
0
LINE
5
478
100
AcDbEntity
8
0
100
AcDbLine
10
18.473238913245538
20
17.587620236790414
30
-0.49999999999999994
11
18.660738913245538
21
17.587620236790414
31
-0.49999999999999994
0
LINE
5
479
100
AcDbEntity
8
0
100
AcDbLine
10
17.607213509461097
20
19.912379763209575
30
-0.49999999999999994
11
17.513463509461097
21
19.749999999999996
31
-0.49999999999999994
0
LINE
5
480
100
AcDbEntity
8
0
100
AcDbLine
10
17.794713509461097
20
16.412379763209575
30
-0.49999999999999994
11
17.607213509461097
21
16.412379763209575
31
-0.49999999999999994
0
LINE
5
481
100
AcDbEntity
8
0
100
AcDbLine
10
17.361700807568877
20
18.837620236790414
30
-0.49999999999999994
11
17.455450807568877
21
18.999999999999996
31
-0.49999999999999994
0
LINE
5
482
100
AcDbEntity
8
0
100
AcDbLine
10
16.308175403784436
20
16.837620236790414
30
-0.49999999999999994
11
16.495675403784436
21
16.837620236790414
31
-0.49999999999999994
0
LINE
5
483
100
AcDbEntity
8
0
100
AcDbLine
10
16.495675403784436
20
17.837620236790414
30
-0.49999999999999994
11
16.589425403784436
21
17.999999999999996
31
-0.49999999999999994
0
LINE
5
484
100
AcDbEntity
8
0
100
AcDbLine
10
18.754488913245538
20
17.249999999999996
30
-0.49999999999999994
11
18.660738913245538
21
17.412379763209579
31
-0.49999999999999994
0
LINE
5
485
100
AcDbEntity
8
0
100
AcDbLine
10
16.928688105676656
20
20.587620236790414
30
-0.49999999999999994
11
17.022438105676656
21
20.749999999999996
31
-0.49999999999999994
0
LINE
5
486
100
AcDbEntity
8
0
100
AcDbLine
10
18.660738913245538
20
17.912379763209575
30
-0.49999999999999994
11
18.473238913245538
21
17.912379763209575
31
-0.49999999999999994
0
LINE
5
487
100
AcDbEntity
8
0
100
AcDbLine
10
19.526764317029976
20
16.412379763209575
30
-0.49999999999999994
11
19.339264317029976
21
16.412379763209575
31
-0.49999999999999994
0
LINE
5
488
100
AcDbEntity
8
0
100
AcDbLine
10
18.473238913245538
20
17.412379763209579
30
-0.49999999999999994
11
18.379488913245538
21
17.249999999999996
31
-0.49999999999999994
0
LINE
5
489
100
AcDbEntity
8
0
100
AcDbLine
10
18.660738913245538
20
19.087620236790418
30
-0.49999999999999994
11
18.754488913245538
21
19.249999999999996
31
-0.49999999999999994
0
LINE
5
490
100
AcDbEntity
8
0
100
AcDbLine
10
17.888463509461097
20
17.249999999999996
30
-0.49999999999999994
11
17.794713509461097
21
17.412379763209579
31
-0.49999999999999994
0
LINE
5
491
100
AcDbEntity
8
0
100
AcDbLine
10
18.040226211353318
20
17.162379763209575
30
-0.49999999999999994
11
17.946476211353318
21
16.999999999999996
31
-0.49999999999999994
0
LINE
5
492
100
AcDbEntity
8
0
100
AcDbLine
10
18.473238913245538
20
16.087620236790414
30
-0.49999999999999994
11
18.660738913245538
21
16.087620236790414
31
-0.49999999999999994
0
LINE
5
493
100
AcDbEntity
8
0
100
AcDbLine
10
17.607213509461097
20
20.912379763209575
30
-0.49999999999999994
11
17.513463509461097
21
20.749999999999996
31
-0.49999999999999994
0
LINE
5
494
100
AcDbEntity
8
0
100
AcDbLine
10
18.227726211353318
20
20.662379763209575
30
-0.49999999999999994
11
18.040226211353318
21
20.662379763209575
31
-0.49999999999999994
0
LINE
5
495
100
AcDbEntity
8
0
100
AcDbLine
10
17.888463509461097
20
20.249999999999996
30
-0.49999999999999994
11
17.794713509461097
21
20.412379763209575
31
-0.49999999999999994
0
LINE
5
496
100
AcDbEntity
8
0
100
AcDbLine
10
17.022438105676656
20
19.249999999999996
30
-0.49999999999999994
11
16.928688105676656
21
19.412379763209579
31
-0.49999999999999994
0
LINE
5
497
100
AcDbEntity
8
0
100
AcDbLine
10
18.379488913245538
20
18.75
30
-0.49999999999999994
11
18.473238913245538
21
18.587620236790414
31
-0.49999999999999994
0
LINE
5
498
100
AcDbEntity
8
0
100
AcDbLine
10
16.928688105676656
20
18.087620236790414
30
-0.49999999999999994
11
17.022438105676656
21
18.249999999999996
31
-0.49999999999999994
0
LINE
5
499
100
AcDbEntity
8
0
100
AcDbLine
10
18.660738913245538
20
16.912379763209575
30
-0.49999999999999994
11
18.473238913245538
21
16.912379763209575
31
-0.49999999999999994
0
LINE
5
500
100
AcDbEntity
8
0
100
AcDbLine
10
16.495675403784436
20
18.662379763209575
30
-0.49999999999999994
11
16.308175403784436
21
18.662379763209575
31
-0.49999999999999994
0
LINE
5
501
100
AcDbEntity
8
0
100
AcDbLine
10
17.455450807568877
20
20.5
30
-0.49999999999999994
11
17.361700807568877
21
20.662379763209575
31
-0.49999999999999994
0
LINE
5
502
100
AcDbEntity
8
0
100
AcDbLine
10
18.473238913245538
20
21.412379763209575
30
-0.49999999999999994
11
18.379488913245538
21
21.25
31
-0.49999999999999994
0
LINE
5
503
100
AcDbEntity
8
0
100
AcDbLine
10
16.741188105676656
20
18.412379763209579
30
-0.49999999999999994
11
16.647438105676656
21
18.249999999999996
31
-0.49999999999999994
0
LINE
5
504
100
AcDbEntity
8
0
100
AcDbLine
10
17.080450807568877
20
19.999999999999996
30
-0.49999999999999994
11
17.174200807568877
21
19.837620236790414
31
-0.49999999999999994
0
LINE
5
505
100
AcDbEntity
8
0
100
AcDbLine
10
17.080450807568877
20
15.999999999999993
30
-0.49999999999999994
11
17.174200807568877
21
15.837620236790416
31
-0.49999999999999994
0
LINE
5
506
100
AcDbEntity
8
0
100
AcDbLine
10
17.174200807568877
20
19.337620236790414
30
-0.49999999999999994
11
17.361700807568877
21
19.337620236790414
31
-0.49999999999999994
0
LINE
5
507
100
AcDbEntity
8
0
100
AcDbLine
10
16.741188105676656
20
17.912379763209575
30
-0.49999999999999994
11
16.647438105676656
21
17.75
31
-0.49999999999999994
0
LINE
5
508
100
AcDbEntity
8
0
100
AcDbLine
10
17.946476211353318
20
16.499999999999993
30
-0.49999999999999994
11
18.040226211353318
21
16.337620236790418
31
-0.49999999999999994
0
LINE
5
509
100
AcDbEntity
8
0
100
AcDbLine
10
16.741188105676656
20
21.912379763209579
30
-0.49999999999999994
11
16.647438105676656
21
21.749999999999996
31
-0.49999999999999994
0
LINE
5
510
100
AcDbEntity
8
0
100
AcDbLine
10
18.379488913245538
20
19.249999999999996
30
-0.49999999999999994
11
18.473238913245538
21
19.087620236790418
31
-0.49999999999999994
0
LINE
5
511
100
AcDbEntity
8
0
100
AcDbLine
10
17.361700807568877
20
20.337620236790414
30
-0.49999999999999994
11
17.455450807568877
21
20.5
31
-0.49999999999999994
0
LINE
5
512
100
AcDbEntity
8
0
100
AcDbLine
10
17.361700807568877
20
19.162379763209579
30
-0.49999999999999994
11
17.174200807568877
21
19.162379763209579
31
-0.49999999999999994
0
LINE
5
513
100
AcDbEntity
8
0
100
AcDbLine
10
17.080450807568877
20
21.999999999999996
30
-0.49999999999999994
11
17.174200807568877
21
21.837620236790411
31
-0.49999999999999994
0
LINE
5
514
100
AcDbEntity
8
0
100
AcDbLine
10
17.080450807568877
20
16.499999999999993
30
-0.49999999999999994
11
17.174200807568877
21
16.337620236790418
31
-0.49999999999999994
0
LINE
5
515
100
AcDbEntity
8
0
100
AcDbLine
10
18.227726211353318
20
18.837620236790414
30
-0.49999999999999994
11
18.321476211353318
21
18.999999999999996
31
-0.49999999999999994
0
LINE
5
516
100
AcDbEntity
8
0
100
AcDbLine
10
18.473238913245538
20
18.587620236790414
30
-0.49999999999999994
11
18.660738913245538
21
18.587620236790414
31
-0.49999999999999994
0
LINE
5
517
100
AcDbEntity
8
0
100
AcDbLine
10
17.794713509461097
20
18.087620236790414
30
-0.49999999999999994
11
17.888463509461097
21
18.249999999999996
31
-0.49999999999999994
0
LINE
5
518
100
AcDbEntity
8
0
100
AcDbLine
10
16.308175403784436
20
21.662379763209575
30
-0.49999999999999994
11
16.214425403784436
21
21.499999999999996
31
-0.49999999999999994
0
LINE
5
519
100
AcDbEntity
8
0
100
AcDbLine
10
17.794713509461097
20
18.412379763209579
30
-0.49999999999999994
11
17.607213509461097
21
18.412379763209579
31
-0.49999999999999994
0
LINE
5
520
100
AcDbEntity
8
0
100
AcDbLine
10
16.928688105676656
20
19.412379763209579
30
-0.49999999999999994
11
16.741188105676656
21
19.412379763209579
31
-0.49999999999999994
0
LINE
5
521
100
AcDbEntity
8
0
100
AcDbLine
10
17.174200807568877
20
20.662379763209575
30
-0.49999999999999994
11
17.080450807568877
21
20.5
31
-0.49999999999999994
0
LINE
5
522
100
AcDbEntity
8
0
100
AcDbLine
10
17.080450807568877
20
20.5
30
-0.49999999999999994
11
17.174200807568877
21
20.337620236790414
31
-0.49999999999999994
0
LINE
5
523
100
AcDbEntity
8
0
100
AcDbLine
10
18.473238913245538
20
19.087620236790418
30
-0.49999999999999994
11
18.660738913245538
21
19.087620236790418
31
-0.49999999999999994
0
LINE
5
524
100
AcDbEntity
8
0
100
AcDbLine
10
18.754488913245538
20
16.249999999999996
30
-0.49999999999999994
11
18.660738913245538
21
16.412379763209575
31
-0.49999999999999994
0
LINE
5
525
100
AcDbEntity
8
0
100
AcDbLine
10
17.080450807568877
20
19.5
30
-0.49999999999999994
11
17.174200807568877
21
19.337620236790414
31
-0.49999999999999994
0
LINE
5
526
100
AcDbEntity
8
0
100
AcDbLine
10
17.888463509461097
20
18.249999999999996
30
-0.49999999999999994
11
17.794713509461097
21
18.412379763209579
31
-0.49999999999999994
0
LINE
5
527
100
AcDbEntity
8
0
100
AcDbLine
10
17.174200807568877
20
16.662379763209579
30
-0.49999999999999994
11
17.080450807568877
21
16.499999999999993
31
-0.49999999999999994
0
LINE
5
528
100
AcDbEntity
8
0
100
AcDbLine
10
18.040226211353318
20
20.662379763209575
30
-0.49999999999999994
11
17.946476211353318
21
20.5
31
-0.49999999999999994
0
LINE
5
529
100
AcDbEntity
8
0
100
AcDbLine
10
17.022438105676656
20
20.249999999999996
30
-0.49999999999999994
11
16.928688105676656
21
20.412379763209575
31
-0.49999999999999994
0
LINE
5
530
100
AcDbEntity
8
0
100
AcDbLine
10
17.361700807568877
20
19.662379763209575
30
-0.49999999999999994
11
17.174200807568877
21
19.662379763209575
31
-0.49999999999999994
0
LINE
5
531
100
AcDbEntity
8
0
100
AcDbLine
10
18.660738913245538
20
18.912379763209575
30
-0.49999999999999994
11
18.473238913245538
21
18.912379763209575
31
-0.49999999999999994
0
LINE
5
532
100
AcDbEntity
8
0
100
AcDbLine
10
16.741188105676656
20
18.587620236790414
30
-0.49999999999999994
11
16.928688105676656
21
18.587620236790414
31
-0.49999999999999994
0
LINE
5
533
100
AcDbEntity
8
0
100
AcDbLine
10
18.473238913245538
20
16.587620236790418
30
-0.49999999999999994
11
18.660738913245538
21
16.587620236790418
31
-0.49999999999999994
0
LINE
5
534
100
AcDbEntity
8
0
100
AcDbLine
10
17.794713509461097
20
19.912379763209575
30
-0.49999999999999994
11
17.607213509461097
21
19.912379763209575
31
-0.49999999999999994
0
LINE
5
535
100
AcDbEntity
8
0
100
AcDbLine
10
18.321476211353318
20
18.499999999999996
30
-0.49999999999999994
11
18.227726211353318
21
18.662379763209575
31
-0.49999999999999994
0
LINE
5
536
100
AcDbEntity
8
0
100
AcDbLine
10
18.040226211353318
20
18.662379763209575
30
-0.49999999999999994
11
17.946476211353318
21
18.499999999999996
31
-0.49999999999999994
0
LINE
5
537
100
AcDbEntity
8
0
100
AcDbLine
10
16.589425403784436
20
18.499999999999996
30
-0.49999999999999994
11
16.495675403784436
21
18.662379763209575
31
-0.49999999999999994
0
LINE
5
538
100
AcDbEntity
8
0
100
AcDbLine
10
18.227726211353318
20
18.662379763209575
30
-0.49999999999999994
11
18.040226211353318
21
18.662379763209575
31
-0.49999999999999994
0
LINE
5
539
100
AcDbEntity
8
0
100
AcDbLine
10
17.513463509461097
20
20.749999999999996
30
-0.49999999999999994
11
17.607213509461097
21
20.587620236790414
31
-0.49999999999999994
0
LINE
5
540
100
AcDbEntity
8
0
100
AcDbLine
10
16.928688105676656
20
18.412379763209579
30
-0.49999999999999994
11
16.741188105676656
21
18.412379763209579
31
-0.49999999999999994
0
LINE
5
541
100
AcDbEntity
8
0
100
AcDbLine
10
17.607213509461097
20
20.412379763209575
30
-0.49999999999999994
11
17.513463509461097
21
20.249999999999996
31
-0.49999999999999994
0
LINE
5
542
100
AcDbEntity
8
0
100
AcDbLine
10
17.888463509461097
20
19.749999999999996
30
-0.49999999999999994
11
17.794713509461097
21
19.912379763209575
31
-0.49999999999999994
0
LINE
5
543
100
AcDbEntity
8
0
100
AcDbLine
10
18.227726211353318
20
21.837620236790411
30
-0.49999999999999994
11
18.321476211353318
21
21.999999999999996
31
-0.49999999999999994
0
LINE
5
544
100
AcDbEntity
8
0
100
AcDbLine
10
18.321476211353318
20
18.999999999999996
30
-0.49999999999999994
11
18.227726211353318
21
19.162379763209579
31
-0.49999999999999994
0
LINE
5
545
100
AcDbEntity
8
0
100
AcDbLine
10
18.473238913245538
20
16.912379763209575
30
-0.49999999999999994
11
18.379488913245538
21
16.749999999999993
31
-0.49999999999999994
0
LINE
5
546
100
AcDbEntity
8
0
100
AcDbLine
10
17.888463509461097
20
18.75
30
-0.49999999999999994
11
17.794713509461097
21
18.912379763209575
31
-0.49999999999999994
0
LINE
5
547
100
AcDbEntity
8
0
100
AcDbLine
10
18.754488913245538
20
19.249999999999996
30
-0.49999999999999994
11
18.660738913245538
21
19.412379763209579
31
-0.49999999999999994
0
LINE
5
548
100
AcDbEntity
8
0
100
AcDbLine
10
17.022438105676656
20
21.749999999999996
30
-0.49999999999999994
11
16.928688105676656
21
21.912379763209579
31
-0.49999999999999994
0
LINE
5
549
100
AcDbEntity
8
0
100
AcDbLine
10
18.473238913245538
20
20.412379763209575
30
-0.49999999999999994
11
18.379488913245538
21
20.249999999999996
31
-0.49999999999999994
0
LINE
5
550
100
AcDbEntity
8
0
100
AcDbLine
10
18.227726211353318
20
21.662379763209575
30
-0.49999999999999994
11
18.040226211353318
21
21.662379763209575
31
-0.49999999999999994
0
LINE
5
551
100
AcDbEntity
8
0
100
AcDbLine
10
16.741188105676656
20
19.587620236790414
30
-0.49999999999999994
11
16.928688105676656
21
19.587620236790414
31
-0.49999999999999994
0
LINE
5
552
100
AcDbEntity
8
0
100
AcDbLine
10
18.321476211353318
20
16.499999999999993
30
-0.49999999999999994
11
18.227726211353318
21
16.662379763209579
31
-0.49999999999999994
0
LINE
5
553
100
AcDbEntity
8
0
100
AcDbLine
10
17.513463509461097
20
19.249999999999996
30
-0.49999999999999994
11
17.607213509461097
21
19.087620236790418
31
-0.49999999999999994
0
LINE
5
554
100
AcDbEntity
8
0
100
AcDbLine
10
17.361700807568877
20
16.662379763209579
30
-0.49999999999999994
11
17.174200807568877
21
16.662379763209579
31
-0.49999999999999994
0
LINE
5
555
100
AcDbEntity
8
0
100
AcDbLine
10
16.495675403784436
20
16.837620236790414
30
-0.49999999999999994
11
16.589425403784436
21
16.999999999999996
31
-0.49999999999999994
0
LINE
5
556
100
AcDbEntity
8
0
100
AcDbLine
10
17.794713509461097
20
20.587620236790414
30
-0.49999999999999994
11
17.888463509461097
21
20.749999999999996
31
-0.49999999999999994
0
LINE
5
557
100
AcDbEntity
8
0
100
AcDbLine
10
17.361700807568877
20
21.162379763209579
30
-0.49999999999999994
11
17.174200807568877
21
21.162379763209579
31
-0.49999999999999994
0
LINE
5
558
100
AcDbEntity
8
0
100
AcDbLine
10
16.928688105676656
20
21.587620236790411
30
-0.49999999999999994
11
17.022438105676656
21
21.749999999999996
31
-0.49999999999999994
0
LINE
5
559
100
AcDbEntity
8
0
100
AcDbLine
10
17.946476211353318
20
21.499999999999996
30
-0.49999999999999994
11
18.040226211353318
21
21.337620236790414
31
-0.49999999999999994
0
LINE
5
560
100
AcDbEntity
8
0
100
AcDbLine
10
17.513463509461097
20
21.25
30
-0.49999999999999994
11
17.607213509461097
21
21.087620236790414
31
-0.49999999999999994
0
LINE
5
561
100
AcDbEntity
8
0
100
AcDbLine
10
17.022438105676656
20
20.749999999999996
30
-0.49999999999999994
11
16.928688105676656
21
20.912379763209575
31
-0.49999999999999994
0
LINE
5
562
100
AcDbEntity
8
0
100
AcDbLine
10
17.607213509461097
20
16.087620236790414
30
-0.49999999999999994
11
17.794713509461097
21
16.087620236790414
31
-0.49999999999999994
0
LINE
5
563
100
AcDbEntity
8
0
100
AcDbLine
10
16.928688105676656
20
21.087620236790414
30
-0.49999999999999994
11
17.022438105676656
21
21.25
31
-0.49999999999999994
0
LINE
5
564
100
AcDbEntity
8
0
100
AcDbLine
10
18.227726211353318
20
17.162379763209575
30
-0.49999999999999994
11
18.040226211353318
21
17.162379763209575
31
-0.49999999999999994
0
LINE
5
565
100
AcDbEntity
8
0
100
AcDbLine
10
16.647438105676656
20
21.25
30
-0.49999999999999994
11
16.741188105676656
21
21.087620236790414
31
-0.49999999999999994
0
LINE
5
566
100
AcDbEntity
8
0
100
AcDbLine
10
18.227726211353318
20
17.662379763209579
30
-0.49999999999999994
11
18.040226211353318
21
17.662379763209579
31
-0.49999999999999994
0
LINE
5
567
100
AcDbEntity
8
0
100
AcDbLine
10
16.647438105676656
20
19.249999999999996
30
-0.49999999999999994
11
16.741188105676656
21
19.087620236790418
31
-0.49999999999999994
0
LINE
5
568
100
AcDbEntity
8
0
100
AcDbLine
10
18.227726211353318
20
22.162379763209575
30
-0.49999999999999994
11
18.040226211353318
21
22.162379763209575
31
-0.49999999999999994
0
LINE
5
569
100
AcDbEntity
8
0
100
AcDbLine
10
18.040226211353318
20
15.837620236790416
30
-0.49999999999999994
11
18.227726211353318
21
15.837620236790416
31
-0.49999999999999994
0
LINE
5
570
100
AcDbEntity
8
0
100
AcDbLine
10
16.928688105676656
20
17.912379763209575
30
-0.49999999999999994
11
16.741188105676656
21
17.912379763209575
31
-0.49999999999999994
0
LINE
5
571
100
AcDbEntity
8
0
100
AcDbLine
10
18.473238913245538
20
19.912379763209575
30
-0.49999999999999994
11
18.379488913245538
21
19.749999999999996
31
-0.49999999999999994
0
LINE
5
572
100
AcDbEntity
8
0
100
AcDbLine
10
16.928688105676656
20
21.412379763209575
30
-0.49999999999999994
11
16.741188105676656
21
21.412379763209575
31
-0.49999999999999994
0
LINE
5
573
100
AcDbEntity
8
0
100
AcDbLine
10
17.607213509461097
20
19.587620236790414
30
-0.49999999999999994
11
17.794713509461097
21
19.587620236790414
31
-0.49999999999999994
0
LINE
5
574
100
AcDbEntity
8
0
100
AcDbLine
10
17.022438105676656
20
21.25
30
-0.49999999999999994
11
16.928688105676656
21
21.412379763209575
31
-0.49999999999999994
0
LINE
5
575
100
AcDbEntity
8
0
100
AcDbLine
10
18.227726211353318
20
17.837620236790414
30
-0.49999999999999994
11
18.321476211353318
21
17.999999999999996
31
-0.49999999999999994
0
LINE
5
576
100
AcDbEntity
8
0
100
AcDbLine
10
18.473238913245538
20
18.412379763209579
30
-0.49999999999999994
11
18.379488913245538
21
18.249999999999996
31
-0.49999999999999994
0
LINE
5
577
100
AcDbEntity
8
0
100
AcDbLine
10
18.227726211353318
20
20.162379763209579
30
-0.49999999999999994
11
18.040226211353318
21
20.162379763209579
31
-0.49999999999999994
0
LINE
5
578
100
AcDbEntity
8
0
100
AcDbLine
10
18.040226211353318
20
20.162379763209579
30
-0.49999999999999994
11
17.946476211353318
21
19.999999999999996
31
-0.49999999999999994
0
LINE
5
579
100
AcDbEntity
8
0
100
AcDbLine
10
18.227726211353318
20
16.662379763209579
30
-0.49999999999999994
11
18.040226211353318
21
16.662379763209579
31
-0.49999999999999994
0
LINE
5
580
100
AcDbEntity
8
0
100
AcDbLine
10
17.361700807568877
20
18.162379763209575
30
-0.49999999999999994
11
17.174200807568877
21
18.162379763209575
31
-0.49999999999999994
0
LINE
5
581
100
AcDbEntity
8
0
100
AcDbLine
10
17.455450807568877
20
21.499999999999996
30
-0.49999999999999994
11
17.361700807568877
21
21.662379763209575
31
-0.49999999999999994
0
LINE
5
582
100
AcDbEntity
8
0
100
AcDbLine
10
16.495675403784436
20
19.162379763209579
30
-0.49999999999999994
11
16.308175403784436
21
19.162379763209579
31
-0.49999999999999994
0
LINE
5
583
100
AcDbEntity
8
0
100
AcDbLine
10
18.379488913245538
20
17.249999999999996
30
-0.49999999999999994
11
18.473238913245538
21
17.087620236790414
31
-0.49999999999999994
0
LINE
5
584
100
AcDbEntity
8
0
100
AcDbLine
10
16.495675403784436
20
21.662379763209575
30
-0.49999999999999994
11
16.308175403784436
21
21.662379763209575
31
-0.49999999999999994
0
LINE
5
585
100
AcDbEntity
8
0
100
AcDbLine
10
17.361700807568877
20
21.837620236790411
30
-0.49999999999999994
11
17.455450807568877
21
21.999999999999996
31
-0.49999999999999994
0
LINE
5
586
100
AcDbEntity
8
0
100
AcDbLine
10
16.741188105676656
20
20.912379763209575
30
-0.49999999999999994
11
16.647438105676656
21
20.749999999999996
31
-0.49999999999999994
0
LINE
5
587
100
AcDbEntity
8
0
100
AcDbLine
10
17.607213509461097
20
20.587620236790414
30
-0.49999999999999994
11
17.794713509461097
21
20.587620236790414
31
-0.49999999999999994
0
LINE
5
588
100
AcDbEntity
8
0
100
AcDbLine
10
17.022438105676656
20
19.749999999999996
30
-0.49999999999999994
11
16.928688105676656
21
19.912379763209575
31
-0.49999999999999994
0
LINE
5
589
100
AcDbEntity
8
0
100
AcDbLine
10
17.607213509461097
20
21.412379763209575
30
-0.49999999999999994
11
17.513463509461097
21
21.25
31
-0.49999999999999994
0
LINE
5
590
100
AcDbEntity
8
0
100
AcDbLine
10
17.794713509461097
20
16.912379763209575
30
-0.49999999999999994
11
17.607213509461097
21
16.912379763209575
31
-0.49999999999999994
0
LINE
5
591
100
AcDbEntity
8
0
100
AcDbLine
10
18.040226211353318
20
19.162379763209579
30
-0.49999999999999994
11
17.946476211353318
21
18.999999999999996
31
-0.49999999999999994
0
LINE
5
592
100
AcDbEntity
8
0
100
AcDbLine
10
17.794713509461097
20
20.912379763209575
30
-0.49999999999999994
11
17.607213509461097
21
20.912379763209575
31
-0.49999999999999994
0
LINE
5
593
100
AcDbEntity
8
0
100
AcDbLine
10
17.794713509461097
20
20.087620236790418
30
-0.49999999999999994
11
17.888463509461097
21
20.249999999999996
31
-0.49999999999999994
0
LINE
5
594
100
AcDbEntity
8
0
100
AcDbLine
10
17.174200807568877
20
18.162379763209575
30
-0.49999999999999994
11
17.080450807568877
21
17.999999999999996
31
-0.49999999999999994
0
LINE
5
595
100
AcDbEntity
8
0
100
AcDbLine
10
17.080450807568877
20
17.499999999999993
30
-0.49999999999999994
11
17.174200807568877
21
17.337620236790418
31
-0.49999999999999994
0
LINE
5
596
100
AcDbEntity
8
0
100
AcDbLine
10
17.174200807568877
20
17.837620236790414
30
-0.49999999999999994
11
17.361700807568877
21
17.837620236790414
31
-0.49999999999999994
0
LINE
5
597
100
AcDbEntity
8
0
100
AcDbLine
10
16.308175403784436
20
17.837620236790414
30
-0.49999999999999994
11
16.495675403784436
21
17.837620236790414
31
-0.49999999999999994
0
LINE
5
598
100
AcDbEntity
8
0
100
AcDbLine
10
18.321476211353318
20
16.999999999999996
30
-0.49999999999999994
11
18.227726211353318
21
17.162379763209575
31
-0.49999999999999994
0
LINE
5
599
100
AcDbEntity
8
0
100
AcDbLine
10
17.794713509461097
20
17.412379763209579
30
-0.49999999999999994
11
17.607213509461097
21
17.412379763209579
31
-0.49999999999999994
0
LINE
5
600
100
AcDbEntity
8
0
100
AcDbLine
10
17.361700807568877
20
21.337620236790414
30
-0.49999999999999994
11
17.455450807568877
21
21.499999999999996
31
-0.49999999999999994
0
LINE
5
601
100
AcDbEntity
8
0
100
AcDbLine
10
18.227726211353318
20
16.837620236790414
30
-0.49999999999999994
11
18.321476211353318
21
16.999999999999996
31
-0.49999999999999994
0
LINE
5
602
100
AcDbEntity
8
0
100
AcDbLine
10
18.660738913245538
20
20.087620236790418
30
-0.49999999999999994
11
18.754488913245538
21
20.249999999999996
31
-0.49999999999999994
0
LINE
5
603
100
AcDbEntity
8
0
100
AcDbLine
10
18.754488913245538
20
18.249999999999996
30
-0.49999999999999994
11
18.660738913245538
21
18.412379763209579
31
-0.49999999999999994
0
LINE
5
604
100
AcDbEntity
8
0
100
AcDbLine
10
18.321476211353318
20
17.499999999999993
30
-0.49999999999999994
11
18.227726211353318
21
17.662379763209579
31
-0.49999999999999994
0
LINE
5
605
100
AcDbEntity
8
0
100
AcDbLine
10
16.741188105676656
20
21.587620236790411
30
-0.49999999999999994
11
16.928688105676656
21
21.587620236790411
31
-0.49999999999999994
0
LINE
5
606
100
AcDbEntity
8
0
100
AcDbLine
10
17.607213509461097
20
18.912379763209575
30
-0.49999999999999994
11
17.513463509461097
21
18.75
31
-0.49999999999999994
0
LINE
5
607
100
AcDbEntity
8
0
100
AcDbLine
10
16.741188105676656
20
19.412379763209579
30
-0.49999999999999994
11
16.647438105676656
21
19.249999999999996
31
-0.49999999999999994
0
LINE
5
608
100
AcDbEntity
8
0
100
AcDbLine
10
17.361700807568877
20
15.837620236790416
30
-0.49999999999999994
11
17.455450807568877
21
15.999999999999993
31
-0.49999999999999994
0
LINE
5
609
100
AcDbEntity
8
0
100
AcDbLine
10
16.741188105676656
20
16.087620236790414
30
-0.49999999999999994
11
16.928688105676656
21
16.087620236790414
31
-0.49999999999999994
0
LINE
5
610
100
AcDbEntity
8
0
100
AcDbLine
10
18.227726211353318
20
16.162379763209575
30
-0.49999999999999994
11
18.040226211353318
21
16.162379763209575
31
-0.49999999999999994
0
LINE
5
611
100
AcDbEntity
8
0
100
AcDbLine
10
16.495675403784436
20
21.837620236790411
30
-0.49999999999999994
11
16.589425403784436
21
21.999999999999996
31
-0.49999999999999994
0
LINE
5
612
100
AcDbEntity
8
0
100
AcDbLine
10
16.308175403784436
20
22.162379763209575
30
-0.49999999999999994
11
16.214425403784436
21
21.999999999999996
31
-0.49999999999999994
0
LINE
5
613
100
AcDbEntity
8
0
100
AcDbLine
10
18.040226211353318
20
16.662379763209579
30
-0.49999999999999994
11
17.946476211353318
21
16.499999999999993
31
-0.49999999999999994
0
LINE
5
614
100
AcDbEntity
8
0
100
AcDbLine
10
18.321476211353318
20
20.999999999999996
30
-0.49999999999999994
11
18.227726211353318
21
21.162379763209579
31
-0.49999999999999994
0
LINE
5
615
100
AcDbEntity
8
0
100
AcDbLine
10
17.513463509461097
20
16.249999999999996
30
-0.49999999999999994
11
17.607213509461097
21
16.087620236790414
31
-0.49999999999999994
0
LINE
5
616
100
AcDbEntity
8
0
100
AcDbLine
10
16.589425403784436
20
17.499999999999993
30
-0.49999999999999994
11
16.495675403784436
21
17.662379763209579
31
-0.49999999999999994
0
LINE
5
617
100
AcDbEntity
8
0
100
AcDbLine
10
20.392789720814417
20
16.412379763209575
30
-0.49999999999999994
11
20.205289720814417
21
16.412379763209575
31
-0.49999999999999994
0
LINE
5
618
100
AcDbEntity
8
0
100
AcDbLine
10
19.772277018922196
20
20.337620236790414
30
-0.49999999999999994
11
19.959777018922196
21
20.337620236790414
31
-0.49999999999999994
0
LINE
5
619
100
AcDbEntity
8
0
100
AcDbLine
10
20.919552422706637
20
17.999999999999996
30
-0.49999999999999994
11
20.825802422706637
21
18.162379763209575
31
-0.49999999999999994
0
LINE
5
620
100
AcDbEntity
8
0
100
AcDbLine
10
20.919552422706637
20
21.499999999999996
30
-0.49999999999999994
11
20.825802422706637
21
21.662379763209575
31
-0.49999999999999994
0
LINE
5
621
100
AcDbEntity
8
0
100
AcDbLine
10
21.410577826491064
20
20.999999999999996
30
-0.49999999999999994
11
21.504327826491064
21
20.837620236790418
31
-0.49999999999999994
0
LINE
5
622
100
AcDbEntity
8
0
100
AcDbLine
10
19.093751615137759
20
15.837620236790416
30
-0.49999999999999994
11
19.187501615137759
21
15.999999999999993
31
-0.49999999999999994
0
LINE
5
623
100
AcDbEntity
8
0
100
AcDbLine
10
21.504327826491064
20
20.837620236790418
30
-0.49999999999999994
11
21.691827826491068
21
20.837620236790418
31
-0.49999999999999994
0
LINE
5
624
100
AcDbEntity
8
0
100
AcDbLine
10
21.691827826491068
20
20.837620236790418
30
-0.49999999999999994
11
21.785577826491068
21
20.999999999999996
31
-0.49999999999999994
0
LINE
5
625
100
AcDbEntity
8
0
100
AcDbLine
10
21.785577826491068
20
17.499999999999993
30
-0.49999999999999994
11
21.691827826491068
21
17.662379763209579
31
-0.49999999999999994
0
LINE
5
626
100
AcDbEntity
8
0
100
AcDbLine
10
20.392789720814417
20
20.912379763209575
30
-0.49999999999999994
11
20.205289720814417
21
20.912379763209575
31
-0.49999999999999994
0
LINE
5
627
100
AcDbEntity
8
0
100
AcDbLine
10
20.544552422706637
20
17.499999999999993
30
-0.49999999999999994
11
20.638302422706634
21
17.337620236790418
31
-0.49999999999999994
0
LINE
5
628
100
AcDbEntity
8
0
100
AcDbLine
10
20.544552422706637
20
18.499999999999996
30
-0.49999999999999994
11
20.638302422706634
21
18.337620236790418
31
-0.49999999999999994
0
LINE
5
629
100
AcDbEntity
8
0
100
AcDbLine
10
19.093751615137759
20
20.837620236790418
30
-0.49999999999999994
11
19.187501615137759
21
20.999999999999996
31
-0.49999999999999994
0
LINE
5
630
100
AcDbEntity
8
0
100
AcDbLine
10
21.785577826491068
20
21.499999999999996
30
-0.49999999999999994
11
21.691827826491068
21
21.662379763209575
31
-0.49999999999999994
0
LINE
5
631
100
AcDbEntity
8
0
100
AcDbLine
10
19.772277018922196
20
15.837620236790416
30
-0.49999999999999994
11
19.959777018922196
21
15.837620236790416
31
-0.49999999999999994
0
LINE
5
632
100
AcDbEntity
8
0
100
AcDbLine
10
21.691827826491068
20
21.662379763209575
30
-0.49999999999999994
11
21.504327826491064
21
21.662379763209575
31
-0.49999999999999994
0
LINE
5
633
100
AcDbEntity
8
0
100
AcDbLine
10
19.245514317029976
20
17.249999999999996
30
-0.49999999999999994
11
19.339264317029976
21
17.087620236790414
31
-0.49999999999999994
0
LINE
5
634
100
AcDbEntity
8
0
100
AcDbLine
10
21.504327826491064
20
22.162379763209575
30
-0.49999999999999994
11
21.410577826491064
21
21.999999999999996
31
-0.49999999999999994
0
LINE
5
635
100
AcDbEntity
8
0
100
AcDbLine
10
19.678527018922196
20
18.499999999999996
30
-0.49999999999999994
11
19.772277018922196
21
18.337620236790418
31
-0.49999999999999994
0
LINE
5
636
100
AcDbEntity
8
0
100
AcDbLine
10
19.959777018922196
20
15.837620236790416
30
-0.49999999999999994
11
20.053527018922196
21
15.999999999999993
31
-0.49999999999999994
0
LINE
5
637
100
AcDbEntity
8
0
100
AcDbLine
10
21.258815124598854
20
21.912379763209579
30
-0.49999999999999994
11
21.071315124598854
21
21.912379763209579
31
-0.49999999999999994
0
LINE
5
638
100
AcDbEntity
8
0
100
AcDbLine
10
21.504327826491064
20
21.837620236790411
30
-0.49999999999999994
11
21.691827826491068
21
21.837620236790411
31
-0.49999999999999994
0
LINE
5
639
100
AcDbEntity
8
0
100
AcDbLine
10
18.812501615137759
20
21.499999999999996
30
-0.49999999999999994
11
18.906251615137759
21
21.337620236790414
31
-0.49999999999999994
0
LINE
5
640
100
AcDbEntity
8
0
100
AcDbLine
10
18.906251615137759
20
20.662379763209575
30
-0.49999999999999994
11
18.812501615137759
21
20.5
31
-0.49999999999999994
0
LINE
5
641
100
AcDbEntity
8
0
100
AcDbLine
10
21.504327826491064
20
19.162379763209579
30
-0.49999999999999994
11
21.410577826491064
21
18.999999999999996
31
-0.49999999999999994
0
LINE
5
642
100
AcDbEntity
8
0
100
AcDbLine
10
20.977565124598854
20
17.249999999999996
30
-0.49999999999999994
11
21.071315124598854
21
17.087620236790414
31
-0.49999999999999994
0
LINE
5
643
100
AcDbEntity
8
0
100
AcDbLine
10
19.339264317029976
20
21.587620236790411
30
-0.49999999999999994
11
19.526764317029976
21
21.587620236790411
31
-0.49999999999999994
0
LINE
5
644
100
AcDbEntity
8
0
100
AcDbLine
10
19.245514317029976
20
19.249999999999996
30
-0.49999999999999994
11
19.339264317029976
21
19.087620236790418
31
-0.49999999999999994
0
LINE
5
645
100
AcDbEntity
8
0
100
AcDbLine
10
20.977565124598854
20
18.75
30
-0.49999999999999994
11
21.071315124598854
21
18.587620236790414
31
-0.49999999999999994
0
LINE
5
646
100
AcDbEntity
8
0
100
AcDbLine
10
19.620514317029976
20
16.749999999999993
30
-0.49999999999999994
11
19.526764317029976
21
16.912379763209575
31
-0.49999999999999994
0
LINE
5
647
100
AcDbEntity
8
0
100
AcDbLine
10
19.245514317029976
20
18.75
30
-0.49999999999999994
11
19.339264317029976
21
18.587620236790414
31
-0.49999999999999994
0
LINE
5
648
100
AcDbEntity
8
0
100
AcDbLine
10
21.504327826491064
20
17.837620236790414
30
-0.49999999999999994
11
21.691827826491068
21
17.837620236790414
31
-0.49999999999999994
0
LINE
5
649
100
AcDbEntity
8
0
100
AcDbLine
10
20.825802422706637
20
20.662379763209575
30
-0.49999999999999994
11
20.638302422706634
21
20.662379763209575
31
-0.49999999999999994
0
LINE
5
650
100
AcDbEntity
8
0
100
AcDbLine
10
21.504327826491064
20
16.162379763209586
30
-0.49999999999999994
11
21.410577826491064
21
15.999999999999993
31
-0.49999999999999994
0
LINE
5
651
100
AcDbEntity
8
0
100
AcDbLine
10
21.691827826491068
20
17.837620236790414
30
-0.49999999999999994
11
21.785577826491068
21
17.999999999999996
31
-0.49999999999999994
0
LINE
5
652
100
AcDbEntity
8
0
100
AcDbLine
10
19.772277018922196
20
19.662379763209575
30
-0.49999999999999994
11
19.678527018922196
21
19.5
31
-0.49999999999999994
0
LINE
5
653
100
AcDbEntity
8
0
100
AcDbLine
10
20.825802422706637
20
18.837620236790414
30
-0.49999999999999994
11
20.919552422706637
21
18.999999999999996
31
-0.49999999999999994
0
LINE
5
654
100
AcDbEntity
8
0
100
AcDbLine
10
21.785577826491068
20
16.499999999999993
30
-0.49999999999999994
11
21.691827826491068
21
16.662379763209579
31
-0.49999999999999994
0
LINE
5
655
100
AcDbEntity
8
0
100
AcDbLine
10
19.526764317029976
20
17.087620236790414
30
-0.49999999999999994
11
19.620514317029976
21
17.249999999999996
31
-0.49999999999999994
0
LINE
5
656
100
AcDbEntity
8
0
100
AcDbLine
10
20.825802422706637
20
21.662379763209575
30
-0.49999999999999994
11
20.638302422706634
21
21.662379763209575
31
-0.49999999999999994
0
LINE
5
657
100
AcDbEntity
8
0
100
AcDbLine
10
21.258815124598854
20
16.587620236790418
30
-0.49999999999999994
11
21.352565124598854
21
16.749999999999993
31
-0.49999999999999994
0
LINE
5
658
100
AcDbEntity
8
0
100
AcDbLine
10
21.258815124598854
20
20.087620236790418
30
-0.49999999999999994
11
21.352565124598854
21
20.249999999999996
31
-0.49999999999999994
0
LINE
5
659
100
AcDbEntity
8
0
100
AcDbLine
10
19.772277018922196
20
18.337620236790418
30
-0.49999999999999994
11
19.959777018922196
21
18.337620236790418
31
-0.49999999999999994
0
LINE
5
660
100
AcDbEntity
8
0
100
AcDbLine
10
21.258815124598854
20
17.912379763209575
30
-0.49999999999999994
11
21.071315124598854
21
17.912379763209575
31
-0.49999999999999994
0
LINE
5
661
100
AcDbEntity
8
0
100
AcDbLine
10
19.772277018922196
20
21.837620236790411
30
-0.49999999999999994
11
19.959777018922196
21
21.837620236790411
31
-0.49999999999999994
0
LINE
5
662
100
AcDbEntity
8
0
100
AcDbLine
10
21.410577826491064
20
17.499999999999993
30
-0.49999999999999994
11
21.504327826491064
21
17.337620236790418
31
-0.49999999999999994
0
LINE
5
663
100
AcDbEntity
8
0
100
AcDbLine
10
20.919552422706637
20
20.5
30
-0.49999999999999994
11
20.825802422706637
21
20.662379763209575
31
-0.49999999999999994
0
LINE
5
664
100
AcDbEntity
8
0
100
AcDbLine
10
19.772277018922196
20
18.837620236790414
30
-0.49999999999999994
11
19.959777018922196
21
18.837620236790414
31
-0.49999999999999994
0
LINE
5
665
100
AcDbEntity
8
0
100
AcDbLine
10
20.053527018922196
20
18.499999999999996
30
-0.49999999999999994
11
19.959777018922196
21
18.662379763209575
31
-0.49999999999999994
0
LINE
5
666
100
AcDbEntity
8
0
100
AcDbLine
10
20.205289720814417
20
17.412379763209579
30
-0.49999999999999994
11
20.111539720814417
21
17.249999999999996
31
-0.49999999999999994
0
LINE
5
667
100
AcDbEntity
8
0
100
AcDbLine
10
19.959777018922196
20
21.162379763209579
30
-0.49999999999999994
11
19.772277018922196
21
21.162379763209579
31
-0.49999999999999994
0
LINE
5
668
100
AcDbEntity
8
0
100
AcDbLine
10
21.410577826491064
20
17.999999999999996
30
-0.49999999999999994
11
21.504327826491064
21
17.837620236790414
31
-0.49999999999999994
0
LINE
5
669
100
AcDbEntity
8
0
100
AcDbLine
10
20.486539720814417
20
16.249999999999996
30
-0.49999999999999994
11
20.392789720814417
21
16.412379763209575
31
-0.49999999999999994
0
LINE
5
670
100
AcDbEntity
8
0
100
AcDbLine
10
20.919552422706637
20
16.999999999999996
30
-0.49999999999999994
11
20.825802422706637
21
17.162379763209575
31
-0.49999999999999994
0
LINE
5
671
100
AcDbEntity
8
0
100
AcDbLine
10
19.339264317029976
20
21.087620236790414
30
-0.49999999999999994
11
19.526764317029976
21
21.087620236790414
31
-0.49999999999999994
0
LINE
5
672
100
AcDbEntity
8
0
100
AcDbLine
10
21.937340528383295
20
16.587620236790418
30
-0.49999999999999994
11
22.124840528383295
21
16.587620236790418
31
-0.49999999999999994
0
LINE
5
673
100
AcDbEntity
8
0
100
AcDbLine
10
19.772277018922196
20
18.662379763209575
30
-0.49999999999999994
11
19.678527018922196
21
18.499999999999996
31
-0.49999999999999994
0
LINE
5
674
100
AcDbEntity
8
0
100
AcDbLine
10
22.124840528383295
20
16.587620236790418
30
-0.49999999999999994
11
22.218590528383295
21
16.749999999999993
31
-0.49999999999999994
0
LINE
5
675
100
AcDbEntity
8
0
100
AcDbLine
10
22.124840528383295
20
16.912379763209575
30
-0.49999999999999994
11
21.937340528383295
21
16.912379763209575
31
-0.49999999999999994
0
LINE
5
676
100
AcDbEntity
8
0
100
AcDbLine
10
19.678527018922196
20
16.499999999999993
30
-0.49999999999999994
11
19.772277018922196
21
16.337620236790418
31
-0.49999999999999994
0
LINE
5
677
100
AcDbEntity
8
0
100
AcDbLine
10
21.937340528383295
20
17.412379763209579
30
-0.49999999999999994
11
21.843590528383295
21
17.249999999999996
31
-0.49999999999999994
0
LINE
5
678
100
AcDbEntity
8
0
100
AcDbLine
10
19.526764317029976
20
17.912379763209575
30
-0.49999999999999994
11
19.339264317029976
21
17.912379763209575
31
-0.49999999999999994
0
LINE
5
679
100
AcDbEntity
8
0
100
AcDbLine
10
20.544552422706637
20
20.5
30
-0.49999999999999994
11
20.638302422706634
21
20.337620236790414
31
-0.49999999999999994
0
LINE
5
680
100
AcDbEntity
8
0
100
AcDbLine
10
19.339264317029976
20
21.412379763209575
30
-0.49999999999999994
11
19.245514317029976
21
21.25
31
-0.49999999999999994
0
LINE
5
681
100
AcDbEntity
8
0
100
AcDbLine
10
19.526764317029976
20
21.587620236790411
30
-0.49999999999999994
11
19.620514317029976
21
21.749999999999996
31
-0.49999999999999994
0
LINE
5
682
100
AcDbEntity
8
0
100
AcDbLine
10
21.258815124598854
20
19.087620236790418
30
-0.49999999999999994
11
21.352565124598854
21
19.249999999999996
31
-0.49999999999999994
0
LINE
5
683
100
AcDbEntity
8
0
100
AcDbLine
10
20.205289720814417
20
16.412379763209575
30
-0.49999999999999994
11
20.111539720814417
21
16.249999999999996
31
-0.49999999999999994
0
LINE
5
684
100
AcDbEntity
8
0
100
AcDbLine
10
21.843590528383295
20
17.249999999999996
30
-0.49999999999999994
11
21.937340528383295
21
17.087620236790414
31
-0.49999999999999994
0
LINE
5
685
100
AcDbEntity
8
0
100
AcDbLine
10
21.504327826491064
20
18.662379763209575
30
-0.49999999999999994
11
21.410577826491064
21
18.499999999999996
31
-0.49999999999999994
0
LINE
5
686
100
AcDbEntity
8
0
100
AcDbLine
10
19.187501615137759
20
16.999999999999996
30
-0.49999999999999994
11
19.093751615137759
21
17.162379763209575
31
-0.49999999999999994
0
LINE
5
687
100
AcDbEntity
8
0
100
AcDbLine
10
20.486539720814417
20
17.75
30
-0.49999999999999994
11
20.392789720814417
21
17.912379763209575
31
-0.49999999999999994
0
LINE
5
688
100
AcDbEntity
8
0
100
AcDbLine
10
19.678527018922196
20
20.5
30
-0.49999999999999994
11
19.772277018922196
21
20.337620236790414
31
-0.49999999999999994
0
LINE
5
689
100
AcDbEntity
8
0
100
AcDbLine
10
21.258815124598854
20
18.587620236790414
30
-0.49999999999999994
11
21.352565124598854
21
18.75
31
-0.49999999999999994
0
LINE
5
690
100
AcDbEntity
8
0
100
AcDbLine
10
21.504327826491064
20
16.837620236790414
30
-0.49999999999999994
11
21.691827826491068
21
16.837620236790414
31
-0.49999999999999994
0
LINE
5
691
100
AcDbEntity
8
0
100
AcDbLine
10
20.638302422706634
20
20.337620236790414
30
-0.49999999999999994
11
20.825802422706637
21
20.337620236790414
31
-0.49999999999999994
0
LINE
5
692
100
AcDbEntity
8
0
100
AcDbLine
10
21.691827826491068
20
16.337620236790418
30
-0.49999999999999994
11
21.785577826491068
21
16.499999999999993
31
-0.49999999999999994
0
LINE
5
693
100
AcDbEntity
8
0
100
AcDbLine
10
21.071315124598854
20
20.412379763209575
30
-0.49999999999999994
11
20.977565124598854
21
20.249999999999996
31
-0.49999999999999994
0
LINE
5
694
100
AcDbEntity
8
0
100
AcDbLine
10
21.258815124598854
20
19.912379763209575
30
-0.49999999999999994
11
21.071315124598854
21
19.912379763209575
31
-0.49999999999999994
0
LINE
5
695
100
AcDbEntity
8
0
100
AcDbLine
10
20.638302422706634
20
19.337620236790414
30
-0.49999999999999994
11
20.825802422706637
21
19.337620236790414
31
-0.49999999999999994
0
LINE
5
696
100
AcDbEntity
8
0
100
AcDbLine
10
19.339264317029976
20
21.912379763209579
30
-0.49999999999999994
11
19.245514317029976
21
21.749999999999996
31
-0.49999999999999994
0
LINE
5
697
100
AcDbEntity
8
0
100
AcDbLine
10
21.071315124598854
20
16.587620236790418
30
-0.49999999999999994
11
21.258815124598854
21
16.587620236790418
31
-0.49999999999999994
0
LINE
5
698
100
AcDbEntity
8
0
100
AcDbLine
10
19.620514317029976
20
18.75
30
-0.49999999999999994
11
19.526764317029976
21
18.912379763209575
31
-0.49999999999999994
0
LINE
5
699
100
AcDbEntity
8
0
100
AcDbLine
10
20.205289720814417
20
18.412379763209579
30
-0.49999999999999994
11
20.111539720814417
21
18.249999999999996
31
-0.49999999999999994
0
LINE
5
700
100
AcDbEntity
8
0
100
AcDbLine
10
21.504327826491064
20
20.662379763209575
30
-0.49999999999999994
11
21.410577826491064
21
20.5
31
-0.49999999999999994
0
LINE
5
701
100
AcDbEntity
8
0
100
AcDbLine
10
18.906251615137759
20
17.837620236790414
30
-0.49999999999999994
11
19.093751615137759
21
17.837620236790414
31
-0.49999999999999994
0
LINE
5
702
100
AcDbEntity
8
0
100
AcDbLine
10
20.392789720814417
20
19.412379763209579
30
-0.49999999999999994
11
20.205289720814417
21
19.412379763209579
31
-0.49999999999999994
0
LINE
5
703
100
AcDbEntity
8
0
100
AcDbLine
10
19.526764317029976
20
18.587620236790414
30
-0.49999999999999994
11
19.620514317029976
21
18.75
31
-0.49999999999999994
0
LINE
5
704
100
AcDbEntity
8
0
100
AcDbLine
10
20.919552422706637
20
18.999999999999996
30
-0.49999999999999994
11
20.825802422706637
21
19.162379763209579
31
-0.49999999999999994
0
LINE
5
705
100
AcDbEntity
8
0
100
AcDbLine
10
19.339264317029976
20
17.912379763209575
30
-0.49999999999999994
11
19.245514317029976
21
17.75
31
-0.49999999999999994
0
LINE
5
706
100
AcDbEntity
8
0
100
AcDbLine
10
21.691827826491068
20
20.337620236790414
30
-0.49999999999999994
11
21.785577826491068
21
20.5
31
-0.49999999999999994
0
LINE
5
707
100
AcDbEntity
8
0
100
AcDbLine
10
21.785577826491068
20
20.999999999999996
30
-0.49999999999999994
11
21.691827826491068
21
21.162379763209579
31
-0.49999999999999994
0
LINE
5
708
100
AcDbEntity
8
0
100
AcDbLine
10
21.258815124598854
20
20.587620236790414
30
-0.49999999999999994
11
21.352565124598854
21
20.749999999999996
31
-0.49999999999999994
0
LINE
5
709
100
AcDbEntity
8
0
100
AcDbLine
10
19.772277018922196
20
16.162379763209575
30
-0.49999999999999994
11
19.678527018922196
21
15.999999999999993
31
-0.49999999999999994
0
LINE
5
710
100
AcDbEntity
8
0
100
AcDbLine
10
20.977565124598854
20
20.749999999999996
30
-0.49999999999999994
11
21.071315124598854
21
20.587620236790414
31
-0.49999999999999994
0
LINE
5
711
100
AcDbEntity
8
0
100
AcDbLine
10
19.959777018922196
20
16.337620236790418
30
-0.49999999999999994
11
20.053527018922196
21
16.499999999999993
31
-0.49999999999999994
0
LINE
5
712
100
AcDbEntity
8
0
100
AcDbLine
10
21.691827826491068
20
21.162379763209579
30
-0.49999999999999994
11
21.504327826491064
21
21.162379763209579
31
-0.49999999999999994
0
LINE
5
713
100
AcDbEntity
8
0
100
AcDbLine
10
19.245514317029976
20
21.25
30
-0.49999999999999994
11
19.339264317029976
21
21.087620236790414
31
-0.49999999999999994
0
LINE
5
714
100
AcDbEntity
8
0
100
AcDbLine
10
20.977565124598854
20
16.249999999999996
30
-0.49999999999999994
11
21.071315124598854
21
16.087620236790414
31
-0.49999999999999994
0
LINE
5
715
100
AcDbEntity
8
0
100
AcDbLine
10
18.473238913245538
20
21.587620236790411
30
-0.49999999999999994
11
18.660738913245538
21
21.587620236790411
31
-0.49999999999999994
0
LINE
5
716
100
AcDbEntity
8
0
100
AcDbLine
10
21.352565124598854
20
21.749999999999996
30
-0.49999999999999994
11
21.258815124598854
21
21.912379763209579
31
-0.49999999999999994
0
LINE
5
717
100
AcDbEntity
8
0
100
AcDbLine
10
20.053527018922196
20
16.999999999999996
30
-0.49999999999999994
11
19.959777018922196
21
17.162379763209575
31
-0.49999999999999994
0
LINE
5
718
100
AcDbEntity
8
0
100
AcDbLine
10
19.959777018922196
20
18.337620236790418
30
-0.49999999999999994
11
20.053527018922196
21
18.499999999999996
31
-0.49999999999999994
0
LINE
5
719
100
AcDbEntity
8
0
100
AcDbLine
10
20.825802422706637
20
20.337620236790414
30
-0.49999999999999994
11
20.919552422706637
21
20.5
31
-0.49999999999999994
0
LINE
5
720
100
AcDbEntity
8
0
100
AcDbLine
10
20.205289720814417
20
18.087620236790414
30
-0.49999999999999994
11
20.392789720814417
21
18.087620236790414
31
-0.49999999999999994
0
LINE
5
721
100
AcDbEntity
8
0
100
AcDbLine
10
18.812501615137759
20
18.499999999999996
30
-0.49999999999999994
11
18.906251615137759
21
18.337620236790418
31
-0.49999999999999994
0
LINE
5
722
100
AcDbEntity
8
0
100
AcDbLine
10
21.785577826491068
20
16.999999999999996
30
-0.49999999999999994
11
21.691827826491068
21
17.162379763209575
31
-0.49999999999999994
0
LINE
5
723
100
AcDbEntity
8
0
100
AcDbLine
10
20.825802422706637
20
16.662379763209579
30
-0.49999999999999994
11
20.638302422706634
21
16.662379763209579
31
-0.49999999999999994
0
LINE
5
724
100
AcDbEntity
8
0
100
AcDbLine
10
20.919552422706637
20
21.999999999999996
30
-0.49999999999999994
11
20.825802422706637
21
22.162379763209575
31
-0.49999999999999994
0
LINE
5
725
100
AcDbEntity
8
0
100
AcDbLine
10
18.379488913245538
20
21.749999999999996
30
-0.49999999999999994
11
18.473238913245538
21
21.587620236790411
31
-0.49999999999999994
0
LINE
5
726
100
AcDbEntity
8
0
100
AcDbLine
10
20.392789720814417
20
20.087620236790418
30
-0.49999999999999994
11
20.486539720814417
21
20.249999999999996
31
-0.49999999999999994
0
LINE
5
727
100
AcDbEntity
8
0
100
AcDbLine
10
20.825802422706637
20
16.162379763209575
30
-0.49999999999999994
11
20.638302422706634
21
16.162379763209575
31
-0.49999999999999994
0
LINE
5
728
100
AcDbEntity
8
0
100
AcDbLine
10
19.245514317029976
20
16.749999999999993
30
-0.49999999999999994
11
19.339264317029976
21
16.587620236790418
31
-0.49999999999999994
0
LINE
5
729
100
AcDbEntity
8
0
100
AcDbLine
10
22.218590528383295
20
16.749999999999993
30
-0.49999999999999994
11
22.124840528383295
21
16.912379763209575
31
-0.49999999999999994
0
LINE
5
730
100
AcDbEntity
8
0
100
AcDbLine
10
19.339264317029976
20
18.087620236790414
30
-0.49999999999999994
11
19.526764317029976
21
18.087620236790414
31
-0.49999999999999994
0
LINE
5
731
100
AcDbEntity
8
0
100
AcDbLine
10
20.544552422706637
20
19.999999999999996
30
-0.49999999999999994
11
20.638302422706634
21
19.837620236790414
31
-0.49999999999999994
0
LINE
5
732
100
AcDbEntity
8
0
100
AcDbLine
10
21.410577826491064
20
18.999999999999996
30
-0.49999999999999994
11
21.504327826491064
21
18.837620236790414
31
-0.49999999999999994
0
LINE
5
733
100
AcDbEntity
8
0
100
AcDbLine
10
20.053527018922196
20
20.5
30
-0.49999999999999994
11
19.959777018922196
21
20.662379763209575
31
-0.49999999999999994
0
LINE
5
734
100
AcDbEntity
8
0
100
AcDbLine
10
19.526764317029976
20
16.087620236790414
30
-0.49999999999999994
11
19.620514317029976
21
16.249999999999996
31
-0.49999999999999994
0
LINE
5
735
100
AcDbEntity
8
0
100
AcDbLine
10
19.772277018922196
20
21.337620236790414
30
-0.49999999999999994
11
19.959777018922196
21
21.337620236790414
31
-0.49999999999999994
0
LINE
5
736
100
AcDbEntity
8
0
100
AcDbLine
10
20.825802422706637
20
21.837620236790411
30
-0.49999999999999994
11
20.919552422706637
21
21.999999999999996
31
-0.49999999999999994
0
LINE
5
737
100
AcDbEntity
8
0
100
AcDbLine
10
21.504327826491064
20
19.337620236790414
30
-0.49999999999999994
11
21.691827826491068
21
19.337620236790414
31
-0.49999999999999994
0
LINE
5
738
100
AcDbEntity
8
0
100
AcDbLine
10
19.093751615137759
20
21.337620236790414
30
-0.49999999999999994
11
19.187501615137759
21
21.499999999999996
31
-0.49999999999999994
0
LINE
5
739
100
AcDbEntity
8
0
100
AcDbLine
10
21.691827826491068
20
19.337620236790414
30
-0.49999999999999994
11
21.785577826491068
21
19.5
31
-0.49999999999999994
0
LINE
5
740
100
AcDbEntity
8
0
100
AcDbLine
10
19.526764317029976
20
19.412379763209579
30
-0.49999999999999994
11
19.339264317029976
21
19.412379763209579
31
-0.49999999999999994
0
LINE
5
741
100
AcDbEntity
8
0
100
AcDbLine
10
21.785577826491068
20
19.5
30
-0.49999999999999994
11
21.691827826491068
21
19.662379763209575
31
-0.49999999999999994
0
LINE
5
742
100
AcDbEntity
8
0
100
AcDbLine
10
19.339264317029976
20
18.587620236790414
30
-0.49999999999999994
11
19.526764317029976
21
18.587620236790414
31
-0.49999999999999994
0
LINE
5
743
100
AcDbEntity
8
0
100
AcDbLine
10
20.392789720814417
20
16.087620236790414
30
-0.49999999999999994
11
20.486539720814417
21
16.249999999999996
31
-0.49999999999999994
0
LINE
5
744
100
AcDbEntity
8
0
100
AcDbLine
10
18.906251615137759
20
21.662379763209575
30
-0.49999999999999994
11
18.812501615137759
21
21.499999999999996
31
-0.49999999999999994
0
LINE
5
745
100
AcDbEntity
8
0
100
AcDbLine
10
20.205289720814417
20
16.587620236790418
30
-0.49999999999999994
11
20.392789720814417
21
16.587620236790418
31
-0.49999999999999994
0
LINE
5
746
100
AcDbEntity
8
0
100
AcDbLine
10
18.906251615137759
20
19.162379763209579
30
-0.49999999999999994
11
18.812501615137759
21
18.999999999999996
31
-0.49999999999999994
0
LINE
5
747
100
AcDbEntity
8
0
100
AcDbLine
10
20.638302422706634
20
17.662379763209579
30
-0.49999999999999994
11
20.544552422706637
21
17.499999999999993
31
-0.49999999999999994
0
LINE
5
748
100
AcDbEntity
8
0
100
AcDbLine
10
19.526764317029976
20
18.087620236790414
30
-0.49999999999999994
11
19.620514317029976
21
18.249999999999996
31
-0.49999999999999994
0
LINE
5
749
100
AcDbEntity
8
0
100
AcDbLine
10
21.691827826491068
20
19.662379763209575
30
-0.49999999999999994
11
21.504327826491064
21
19.662379763209575
31
-0.49999999999999994
0
LINE
5
750
100
AcDbEntity
8
0
100
AcDbLine
10
19.187501615137759
20
19.5
30
-0.49999999999999994
11
19.093751615137759
21
19.662379763209575
31
-0.49999999999999994
0
LINE
5
751
100
AcDbEntity
8
0
100
AcDbLine
10
21.504327826491064
20
20.162379763209579
30
-0.49999999999999994
11
21.410577826491064
21
19.999999999999996
31
-0.49999999999999994
0
LINE
5
752
100
AcDbEntity
8
0
100
AcDbLine
10
21.410577826491064
20
19.999999999999996
30
-0.49999999999999994
11
21.504327826491064
21
19.837620236790414
31
-0.49999999999999994
0
LINE
5
753
100
AcDbEntity
8
0
100
AcDbLine
10
20.638302422706634
20
16.662379763209579
30
-0.49999999999999994
11
20.544552422706637
21
16.499999999999993
31
-0.49999999999999994
0
LINE
5
754
100
AcDbEntity
8
0
100
AcDbLine
10
20.111539720814417
20
18.75
30
-0.49999999999999994
11
20.205289720814417
21
18.587620236790414
31
-0.49999999999999994
0
LINE
5
755
100
AcDbEntity
8
0
100
AcDbLine
10
21.937340528383295
20
21.587620236790411
30
-0.49999999999999994
11
22.124840528383295
21
21.587620236790411
31
-0.49999999999999994
0
LINE
5
756
100
AcDbEntity
8
0
100
AcDbLine
10
18.906251615137759
20
19.337620236790414
30
-0.49999999999999994
11
19.093751615137759
21
19.337620236790414
31
-0.49999999999999994
0
LINE
5
757
100
AcDbEntity
8
0
100
AcDbLine
10
22.124840528383295
20
21.587620236790411
30
-0.49999999999999994
11
22.218590528383295
21
21.749999999999996
31
-0.49999999999999994
0
LINE
5
758
100
AcDbEntity
8
0
100
AcDbLine
10
19.187501615137759
20
21.499999999999996
30
-0.49999999999999994
11
19.093751615137759
21
21.662379763209575
31
-0.49999999999999994
0
LINE
5
759
100
AcDbEntity
8
0
100
AcDbLine
10
20.825802422706637
20
19.162379763209579
30
-0.49999999999999994
11
20.638302422706634
21
19.162379763209579
31
-0.49999999999999994
0
LINE
5
760
100
AcDbEntity
8
0
100
AcDbLine
10
22.218590528383295
20
21.749999999999996
30
-0.49999999999999994
11
22.124840528383295
21
21.912379763209579
31
-0.49999999999999994
0
LINE
5
761
100
AcDbEntity
8
0
100
AcDbLine
10
19.093751615137759
20
21.162379763209579
30
-0.49999999999999994
11
18.906251615137759
21
21.162379763209579
31
-0.49999999999999994
0
LINE
5
762
100
AcDbEntity
8
0
100
AcDbLine
10
21.410577826491064
20
18.499999999999996
30
-0.49999999999999994
11
21.504327826491064
21
18.337620236790418
31
-0.49999999999999994
0
LINE
5
763
100
AcDbEntity
8
0
100
AcDbLine
10
21.504327826491064
20
18.337620236790418
30
-0.49999999999999994
11
21.691827826491068
21
18.337620236790418
31
-0.49999999999999994
0
LINE
5
764
100
AcDbEntity
8
0
100
AcDbLine
10
22.124840528383295
20
20.412379763209575
30
-0.49999999999999994
11
21.937340528383295
21
20.412379763209575
31
-0.49999999999999994
0
LINE
5
765
100
AcDbEntity
8
0
100
AcDbLine
10
20.392789720814417
20
16.912379763209575
30
-0.49999999999999994
11
20.205289720814417
21
16.912379763209575
31
-0.49999999999999994
0
LINE
5
766
100
AcDbEntity
8
0
100
AcDbLine
10
18.754488913245538
20
21.25
30
-0.49999999999999994
11
18.660738913245538
21
21.412379763209575
31
-0.49999999999999994
0
LINE
5
767
100
AcDbEntity
8
0
100
AcDbLine
10
19.959777018922196
20
20.662379763209575
30
-0.49999999999999994
11
19.772277018922196
21
20.662379763209575
31
-0.49999999999999994
0
LINE
5
768
100
AcDbEntity
8
0
100
AcDbLine
10
18.906251615137759
20
20.162379763209579
30
-0.49999999999999994
11
18.812501615137759
21
19.999999999999996
31
-0.49999999999999994
0
LINE
5
769
100
AcDbEntity
8
0
100
AcDbLine
10
21.843590528383295
20
20.749999999999996
30
-0.49999999999999994
11
21.937340528383295
21
20.587620236790414
31
-0.49999999999999994
0
LINE
5
770
100
AcDbEntity
8
0
100
AcDbLine
10
19.187501615137759
20
20.999999999999996
30
-0.49999999999999994
11
19.093751615137759
21
21.162379763209579
31
-0.49999999999999994
0
LINE
5
771
100
AcDbEntity
8
0
100
AcDbLine
10
20.825802422706637
20
18.162379763209575
30
-0.49999999999999994
11
20.638302422706634
21
18.162379763209575
31
-0.49999999999999994
0
LINE
5
772
100
AcDbEntity
8
0
100
AcDbLine
10
21.937340528383295
20
20.587620236790414
30
-0.49999999999999994
11
22.124840528383295
21
20.587620236790414
31
-0.49999999999999994
0
LINE
5
773
100
AcDbEntity
8
0
100
AcDbLine
10
21.937340528383295
20
21.912379763209579
30
-0.49999999999999994
11
21.843590528383295
21
21.749999999999996
31
-0.49999999999999994
0
LINE
5
774
100
AcDbEntity
8
0
100
AcDbLine
10
21.352565124598854
20
17.249999999999996
30
-0.49999999999999994
11
21.258815124598854
21
17.412379763209579
31
-0.49999999999999994
0
LINE
5
775
100
AcDbEntity
8
0
100
AcDbLine
10
21.843590528383295
20
21.749999999999996
30
-0.49999999999999994
11
21.937340528383295
21
21.587620236790411
31
-0.49999999999999994
0
LINE
5
776
100
AcDbEntity
8
0
100
AcDbLine
10
18.812501615137759
20
18.999999999999996
30
-0.49999999999999994
11
18.906251615137759
21
18.837620236790414
31
-0.49999999999999994
0
LINE
5
777
100
AcDbEntity
8
0
100
AcDbLine
10
21.785577826491068
20
15.999999999999993
30
-0.49999999999999994
11
21.691827826491068
21
16.162379763209586
31
-0.49999999999999994
0
LINE
5
778
100
AcDbEntity
8
0
100
AcDbLine
10
19.678527018922196
20
21.499999999999996
30
-0.49999999999999994
11
19.772277018922196
21
21.337620236790414
31
-0.49999999999999994
0
LINE
5
779
100
AcDbEntity
8
0
100
AcDbLine
10
20.825802422706637
20
20.837620236790418
30
-0.49999999999999994
11
20.919552422706637
21
20.999999999999996
31
-0.49999999999999994
0
LINE
5
780
100
AcDbEntity
8
0
100
AcDbLine
10
21.785577826491068
20
19.999999999999996
30
-0.49999999999999994
11
21.691827826491068
21
20.162379763209579
31
-0.49999999999999994
0
LINE
5
781
100
AcDbEntity
8
0
100
AcDbLine
10
19.526764317029976
20
17.412379763209579
30
-0.49999999999999994
11
19.339264317029976
21
17.412379763209579
31
-0.49999999999999994
0
LINE
5
782
100
AcDbEntity
8
0
100
AcDbLine
10
21.691827826491068
20
20.162379763209579
30
-0.49999999999999994
11
21.504327826491064
21
20.162379763209579
31
-0.49999999999999994
0
LINE
5
783
100
AcDbEntity
8
0
100
AcDbLine
10
20.825802422706637
20
21.337620236790414
30
-0.49999999999999994
11
20.919552422706637
21
21.499999999999996
31
-0.49999999999999994
0
LINE
5
784
100
AcDbEntity
8
0
100
AcDbLine
10
18.906251615137759
20
19.837620236790414
30
-0.49999999999999994
11
19.093751615137759
21
19.837620236790414
31
-0.49999999999999994
0
LINE
5
785
100
AcDbEntity
8
0
100
AcDbLine
10
20.544552422706637
20
21.999999999999996
30
-0.49999999999999994
11
20.638302422706634
21
21.837620236790411
31
-0.49999999999999994
0
LINE
5
786
100
AcDbEntity
8
0
100
AcDbLine
10
20.205289720814417
20
21.587620236790411
30
-0.49999999999999994
11
20.392789720814417
21
21.587620236790411
31
-0.49999999999999994
0
LINE
5
787
100
AcDbEntity
8
0
100
AcDbLine
10
21.352565124598854
20
19.749999999999996
30
-0.49999999999999994
11
21.258815124598854
21
19.912379763209575
31
-0.49999999999999994
0
LINE
5
788
100
AcDbEntity
8
0
100
AcDbLine
10
18.812501615137759
20
21.999999999999996
30
-0.49999999999999994
11
18.906251615137759
21
21.837620236790411
31
-0.49999999999999994
0
LINE
5
789
100
AcDbEntity
8
0
100
AcDbLine
10
19.339264317029976
20
16.912379763209575
30
-0.49999999999999994
11
19.245514317029976
21
16.749999999999993
31
-0.49999999999999994
0
LINE
5
790
100
AcDbEntity
8
0
100
AcDbLine
10
20.638302422706634
20
21.662379763209575
30
-0.49999999999999994
11
20.544552422706637
21
21.499999999999996
31
-0.49999999999999994
0
LINE
5
791
100
AcDbEntity
8
0
100
AcDbLine
10
19.620514317029976
20
21.749999999999996
30
-0.49999999999999994
11
19.526764317029976
21
21.912379763209579
31
-0.49999999999999994
0
LINE
5
792
100
AcDbEntity
8
0
100
AcDbLine
10
21.691827826491068
20
16.662379763209579
30
-0.49999999999999994
11
21.504327826491064
21
16.662379763209579
31
-0.49999999999999994
0
LINE
5
793
100
AcDbEntity
8
0
100
AcDbLine
10
20.825802422706637
20
17.337620236790418
30
-0.49999999999999994
11
20.919552422706637
21
17.499999999999993
31
-0.49999999999999994
0
LINE
5
794
100
AcDbEntity
8
0
100
AcDbLine
10
19.772277018922196
20
17.337620236790418
30
-0.49999999999999994
11
19.959777018922196
21
17.337620236790418
31
-0.49999999999999994
0
LINE
5
795
100
AcDbEntity
8
0
100
AcDbLine
10
19.187501615137759
20
16.499999999999993
30
-0.49999999999999994
11
19.093751615137759
21
16.662379763209579
31
-0.49999999999999994
0
LINE
5
796
100
AcDbEntity
8
0
100
AcDbLine
10
19.339264317029976
20
16.087620236790414
30
-0.49999999999999994
11
19.526764317029976
21
16.087620236790414
31
-0.49999999999999994
0
LINE
5
797
100
AcDbEntity
8
0
100
AcDbLine
10
21.691827826491068
20
15.837620236790416
30
-0.49999999999999994
11
21.785577826491068
21
15.999999999999993
31
-0.49999999999999994
0
LINE
5
798
100
AcDbEntity
8
0
100
AcDbLine
10
21.410577826491064
20
21.999999999999996
30
-0.49999999999999994
11
21.504327826491064
21
21.837620236790411
31
-0.49999999999999994
0
LINE
5
799
100
AcDbEntity
8
0
100
AcDbLine
10
19.093751615137759
20
20.162379763209579
30
-0.49999999999999994
11
18.906251615137759
21
20.162379763209579
31
-0.49999999999999994
0
LINE
5
800
100
AcDbEntity
8
0
100
AcDbLine
10
19.959777018922196
20
21.337620236790414
30
-0.49999999999999994
11
20.053527018922196
21
21.499999999999996
31
-0.49999999999999994
0
LINE
5
801
100
AcDbEntity
8
0
100
AcDbLine
10
19.526764317029976
20
21.412379763209575
30
-0.49999999999999994
11
19.339264317029976
21
21.412379763209575
31
-0.49999999999999994
0
LINE
5
802
100
AcDbEntity
8
0
100
AcDbLine
10
21.071315124598854
20
18.587620236790414
30
-0.49999999999999994
11
21.258815124598854
21
18.587620236790414
31
-0.49999999999999994
0
LINE
5
803
100
AcDbEntity
8
0
100
AcDbLine
10
21.937340528383295
20
20.412379763209575
30
-0.49999999999999994
11
21.843590528383295
21
20.249999999999996
31
-0.49999999999999994
0
LINE
5
804
100
AcDbEntity
8
0
100
AcDbLine
10
21.843590528383295
20
20.249999999999996
30
-0.49999999999999994
11
21.937340528383295
21
20.087620236790418
31
-0.49999999999999994
0
LINE
5
805
100
AcDbEntity
8
0
100
AcDbLine
10
20.053527018922196
20
19.999999999999996
30
-0.49999999999999994
11
19.959777018922196
21
20.162379763209579
31
-0.49999999999999994
0
LINE
5
806
100
AcDbEntity
8
0
100
AcDbLine
10
21.937340528383295
20
20.087620236790418
30
-0.49999999999999994
11
22.124840528383295
21
20.087620236790418
31
-0.49999999999999994
0
LINE
5
807
100
AcDbEntity
8
0
100
AcDbLine
10
18.812501615137759
20
16.499999999999993
30
-0.49999999999999994
11
18.906251615137759
21
16.337620236790418
31
-0.49999999999999994
0
LINE
5
808
100
AcDbEntity
8
0
100
AcDbLine
10
20.638302422706634
20
16.837620236790414
30
-0.49999999999999994
11
20.825802422706637
21
16.837620236790414
31
-0.49999999999999994
0
LINE
5
809
100
AcDbEntity
8
0
100
AcDbLine
10
20.205289720814417
20
21.412379763209575
30
-0.49999999999999994
11
20.111539720814417
21
21.25
31
-0.49999999999999994
0
LINE
5
810
100
AcDbEntity
8
0
100
AcDbLine
10
20.919552422706637
20
17.499999999999993
30
-0.49999999999999994
11
20.825802422706637
21
17.662379763209579
31
-0.49999999999999994
0
LINE
5
811
100
AcDbEntity
8
0
100
AcDbLine
10
20.486539720814417
20
16.749999999999993
30
-0.49999999999999994
11
20.392789720814417
21
16.912379763209575
31
-0.49999999999999994
0
LINE
5
812
100
AcDbEntity
8
0
100
AcDbLine
10
20.919552422706637
20
19.5
30
-0.49999999999999994
11
20.825802422706637
21
19.662379763209575
31
-0.49999999999999994
0
LINE
5
813
100
AcDbEntity
8
0
100
AcDbLine
10
21.071315124598854
20
18.087620236790414
30
-0.49999999999999994
11
21.258815124598854
21
18.087620236790414
31
-0.49999999999999994
0
LINE
5
814
100
AcDbEntity
8
0
100
AcDbLine
10
19.678527018922196
20
21.999999999999996
30
-0.49999999999999994
11
19.772277018922196
21
21.837620236790411
31
-0.49999999999999994
0
LINE
5
815
100
AcDbEntity
8
0
100
AcDbLine
10
19.959777018922196
20
18.662379763209575
30
-0.49999999999999994
11
19.772277018922196
21
18.662379763209575
31
-0.49999999999999994
0
LINE
5
816
100
AcDbEntity
8
0
100
AcDbLine
10
20.825802422706637
20
20.162379763209579
30
-0.49999999999999994
11
20.638302422706634
21
20.162379763209579
31
-0.49999999999999994
0
LINE
5
817
100
AcDbEntity
8
0
100
AcDbLine
10
19.772277018922196
20
21.662379763209575
30
-0.49999999999999994
11
19.678527018922196
21
21.499999999999996
31
-0.49999999999999994
0
LINE
5
818
100
AcDbEntity
8
0
100
AcDbLine
10
19.772277018922196
20
20.162379763209579
30
-0.49999999999999994
11
19.678527018922196
21
19.999999999999996
31
-0.49999999999999994
0
LINE
5
819
100
AcDbEntity
8
0
100
AcDbLine
10
21.691827826491068
20
21.837620236790411
30
-0.49999999999999994
11
21.785577826491068
21
21.999999999999996
31
-0.49999999999999994
0
LINE
5
820
100
AcDbEntity
8
0
100
AcDbLine
10
19.339264317029976
20
18.912379763209575
30
-0.49999999999999994
11
19.245514317029976
21
18.75
31
-0.49999999999999994
0
LINE
5
821
100
AcDbEntity
8
0
100
AcDbLine
10
21.785577826491068
20
21.999999999999996
30
-0.49999999999999994
11
21.691827826491068
21
22.162379763209575
31
-0.49999999999999994
0
LINE
5
822
100
AcDbEntity
8
0
100
AcDbLine
10
18.906251615137759
20
16.162379763209575
30
-0.49999999999999994
11
18.812501615137759
21
15.999999999999993
31
-0.49999999999999994
0
LINE
5
823
100
AcDbEntity
8
0
100
AcDbLine
10
20.638302422706634
20
19.162379763209579
30
-0.49999999999999994
11
20.544552422706637
21
18.999999999999996
31
-0.49999999999999994
0
LINE
5
824
100
AcDbEntity
8
0
100
AcDbLine
10
18.812501615137759
20
19.5
30
-0.49999999999999994
11
18.906251615137759
21
19.337620236790414
31
-0.49999999999999994
0
LINE
5
825
100
AcDbEntity
8
0
100
AcDbLine
10
21.504327826491064
20
17.337620236790418
30
-0.49999999999999994
11
21.691827826491068
21
17.337620236790418
31
-0.49999999999999994
0
LINE
5
826
100
AcDbEntity
8
0
100
AcDbLine
10
19.093751615137759
20
18.662379763209575
30
-0.49999999999999994
11
18.906251615137759
21
18.662379763209575
31
-0.49999999999999994
0
LINE
5
827
100
AcDbEntity
8
0
100
AcDbLine
10
20.638302422706634
20
19.662379763209575
30
-0.49999999999999994
11
20.544552422706637
21
19.5
31
-0.49999999999999994
0
LINE
5
828
100
AcDbEntity
8
0
100
AcDbLine
10
19.772277018922196
20
19.162379763209579
30
-0.49999999999999994
11
19.678527018922196
21
18.999999999999996
31
-0.49999999999999994
0
LINE
5
829
100
AcDbEntity
8
0
100
AcDbLine
10
20.053527018922196
20
17.999999999999996
30
-0.49999999999999994
11
19.959777018922196
21
18.162379763209575
31
-0.49999999999999994
0
LINE
5
830
100
AcDbEntity
8
0
100
AcDbLine
10
20.638302422706634
20
15.837620236790416
30
-0.49999999999999994
11
20.825802422706637
21
15.837620236790416
31
-0.49999999999999994
0
LINE
5
831
100
AcDbEntity
8
0
100
AcDbLine
10
21.352565124598854
20
18.249999999999996
30
-0.49999999999999994
11
21.258815124598854
21
18.412379763209579
31
-0.49999999999999994
0
LINE
5
832
100
AcDbEntity
8
0
100
AcDbLine
10
21.691827826491068
20
17.662379763209579
30
-0.49999999999999994
11
21.504327826491064
21
17.662379763209579
31
-0.49999999999999994
0
LINE
5
833
100
AcDbEntity
8
0
100
AcDbLine
10
21.504327826491064
20
18.162379763209575
30
-0.49999999999999994
11
21.410577826491064
21
17.999999999999996
31
-0.49999999999999994
0
LINE
5
834
100
AcDbEntity
8
0
100
AcDbLine
10
19.772277018922196
20
16.662379763209579
30
-0.49999999999999994
11
19.678527018922196
21
16.499999999999993
31
-0.49999999999999994
0
LINE
5
835
100
AcDbEntity
8
0
100
AcDbLine
10
20.392789720814417
20
18.087620236790414
30
-0.49999999999999994
11
20.486539720814417
21
18.249999999999996
31
-0.49999999999999994
0
LINE
5
836
100
AcDbEntity
8
0
100
AcDbLine
10
21.071315124598854
20
19.587620236790414
30
-0.49999999999999994
11
21.258815124598854
21
19.587620236790414
31
-0.49999999999999994
0
LINE
5
837
100
AcDbEntity
8
0
100
AcDbLine
10
19.959777018922196
20
19.162379763209579
30
-0.49999999999999994
11
19.772277018922196
21
19.162379763209579
31
-0.49999999999999994
0
LINE
5
838
100
AcDbEntity
8
0
100
AcDbLine
10
19.526764317029976
20
18.412379763209579
30
-0.49999999999999994
11
19.339264317029976
21
18.412379763209579
31
-0.49999999999999994
0
LINE
5
839
100
AcDbEntity
8
0
100
AcDbLine
10
21.352565124598854
20
16.749999999999993
30
-0.49999999999999994
11
21.258815124598854
21
16.912379763209575
31
-0.49999999999999994
0
LINE
5
840
100
AcDbEntity
8
0
100
AcDbLine
10
21.258815124598854
20
16.912379763209575
30
-0.49999999999999994
11
21.071315124598854
21
16.912379763209575
31
-0.49999999999999994
0
LINE
5
841
100
AcDbEntity
8
0
100
AcDbLine
10
18.906251615137759
20
17.162379763209575
30
-0.49999999999999994
11
18.812501615137759
21
16.999999999999996
31
-0.49999999999999994
0
LINE
5
842
100
AcDbEntity
8
0
100
AcDbLine
10
21.937340528383295
20
17.087620236790414
30
-0.49999999999999994
11
22.124840528383295
21
17.087620236790414
31
-0.49999999999999994
0
LINE
5
843
100
AcDbEntity
8
0
100
AcDbLine
10
19.526764317029976
20
20.587620236790414
30
-0.49999999999999994
11
19.620514317029976
21
20.749999999999996
31
-0.49999999999999994
0
LINE
5
844
100
AcDbEntity
8
0
100
AcDbLine
10
22.124840528383295
20
17.087620236790414
30
-0.49999999999999994
11
22.218590528383295
21
17.249999999999996
31
-0.49999999999999994
0
LINE
5
845
100
AcDbEntity
8
0
100
AcDbLine
10
19.620514317029976
20
17.249999999999996
30
-0.49999999999999994
11
19.526764317029976
21
17.412379763209579
31
-0.49999999999999994
0
LINE
5
846
100
AcDbEntity
8
0
100
AcDbLine
10
22.218590528383295
20
17.249999999999996
30
-0.49999999999999994
11
22.124840528383295
21
17.412379763209579
31
-0.49999999999999994
0
LINE
5
847
100
AcDbEntity
8
0
100
AcDbLine
10
19.678527018922196
20
17.499999999999993
30
-0.49999999999999994
11
19.772277018922196
21
17.337620236790418
31
-0.49999999999999994
0
LINE
5
848
100
AcDbEntity
8
0
100
AcDbLine
10
22.124840528383295
20
17.412379763209579
30
-0.49999999999999994
11
21.937340528383295
21
17.412379763209579
31
-0.49999999999999994
0
LINE
5
849
100
AcDbEntity
8
0
100
AcDbLine
10
19.959777018922196
20
20.162379763209579
30
-0.49999999999999994
11
19.772277018922196
21
20.162379763209579
31
-0.49999999999999994
0
LINE
5
850
100
AcDbEntity
8
0
100
AcDbLine
10
20.638302422706634
20
16.162379763209575
30
-0.49999999999999994
11
20.544552422706637
21
15.999999999999993
31
-0.49999999999999994
0
LINE
5
851
100
AcDbEntity
8
0
100
AcDbLine
10
20.392789720814417
20
19.087620236790418
30
-0.49999999999999994
11
20.486539720814417
21
19.249999999999996
31
-0.49999999999999994
0
LINE
5
852
100
AcDbEntity
8
0
100
AcDbLine
10
21.937340528383295
20
17.912379763209575
30
-0.49999999999999994
11
21.843590528383295
21
17.75
31
-0.49999999999999994
0
LINE
5
853
100
AcDbEntity
8
0
100
AcDbLine
10
19.245514317029976
20
20.749999999999996
30
-0.49999999999999994
11
19.339264317029976
21
20.587620236790414
31
-0.49999999999999994
0
LINE
5
854
100
AcDbEntity
8
0
100
AcDbLine
10
18.812501615137759
20
19.999999999999996
30
-0.49999999999999994
11
18.906251615137759
21
19.837620236790414
31
-0.49999999999999994
0
LINE
5
855
100
AcDbEntity
8
0
100
AcDbLine
10
21.843590528383295
20
17.75
30
-0.49999999999999994
11
21.937340528383295
21
17.587620236790414
31
-0.49999999999999994
0
LINE
5
856
100
AcDbEntity
8
0
100
AcDbLine
10
20.919552422706637
20
15.999999999999993
30
-0.49999999999999994
11
20.825802422706637
21
16.162379763209575
31
-0.49999999999999994
0
LINE
5
857
100
AcDbEntity
8
0
100
AcDbLine
10
21.071315124598854
20
17.087620236790414
30
-0.49999999999999994
11
21.258815124598854
21
17.087620236790414
31
-0.49999999999999994
0
LINE
5
858
100
AcDbEntity
8
0
100
AcDbLine
10
19.187501615137759
20
17.499999999999993
30
-0.49999999999999994
11
19.093751615137759
21
17.662379763209579
31
-0.49999999999999994
0
LINE
5
859
100
AcDbEntity
8
0
100
AcDbLine
10
19.772277018922196
20
18.162379763209575
30
-0.49999999999999994
11
19.678527018922196
21
17.999999999999996
31
-0.49999999999999994
0
LINE
5
860
100
AcDbEntity
8
0
100
AcDbLine
10
21.410577826491064
20
16.499999999999993
30
-0.49999999999999994
11
21.504327826491064
21
16.337620236790418
31
-0.49999999999999994
0
LINE
5
861
100
AcDbEntity
8
0
100
AcDbLine
10
21.843590528383295
20
16.749999999999993
30
-0.49999999999999994
11
21.937340528383295
21
16.587620236790418
31
-0.49999999999999994
0
LINE
5
862
100
AcDbEntity
8
0
100
AcDbLine
10
21.352565124598854
20
19.249999999999996
30
-0.49999999999999994
11
21.258815124598854
21
19.412379763209579
31
-0.49999999999999994
0
LINE
5
863
100
AcDbEntity
8
0
100
AcDbLine
10
21.071315124598854
20
16.412379763209575
30
-0.49999999999999994
11
20.977565124598854
21
16.249999999999996
31
-0.49999999999999994
0
LINE
5
864
100
AcDbEntity
8
0
100
AcDbLine
10
20.544552422706637
20
16.999999999999996
30
-0.49999999999999994
11
20.638302422706634
21
16.837620236790414
31
-0.49999999999999994
0
LINE
5
865
100
AcDbEntity
8
0
100
AcDbLine
10
20.111539720814417
20
18.249999999999996
30
-0.49999999999999994
11
20.205289720814417
21
18.087620236790414
31
-0.49999999999999994
0
LINE
5
866
100
AcDbEntity
8
0
100
AcDbLine
10
21.504327826491064
20
19.662379763209575
30
-0.49999999999999994
11
21.410577826491064
21
19.5
31
-0.49999999999999994
0
LINE
5
867
100
AcDbEntity
8
0
100
AcDbLine
10
20.486539720814417
20
20.749999999999996
30
-0.49999999999999994
11
20.392789720814417
21
20.912379763209575
31
-0.49999999999999994
0
LINE
5
868
100
AcDbEntity
8
0
100
AcDbLine
10
18.906251615137759
20
16.837620236790414
30
-0.49999999999999994
11
19.093751615137759
21
16.837620236790414
31
-0.49999999999999994
0
LINE
5
869
100
AcDbEntity
8
0
100
AcDbLine
10
21.258815124598854
20
19.587620236790414
30
-0.49999999999999994
11
21.352565124598854
21
19.749999999999996
31
-0.49999999999999994
0
LINE
5
870
100
AcDbEntity
8
0
100
AcDbLine
10
20.392789720814417
20
19.912379763209575
30
-0.49999999999999994
11
20.205289720814417
21
19.912379763209575
31
-0.49999999999999994
0
LINE
5
871
100
AcDbEntity
8
0
100
AcDbLine
10
20.392789720814417
20
19.587620236790414
30
-0.49999999999999994
11
20.486539720814417
21
19.749999999999996
31
-0.49999999999999994
0
LINE
5
872
100
AcDbEntity
8
0
100
AcDbLine
10
19.772277018922196
20
21.162379763209579
30
-0.49999999999999994
11
19.678527018922196
21
20.999999999999996
31
-0.49999999999999994
0
LINE
5
873
100
AcDbEntity
8
0
100
AcDbLine
10
21.258815124598854
20
16.087620236790414
30
-0.49999999999999994
11
21.352565124598854
21
16.249999999999996
31
-0.49999999999999994
0
LINE
5
874
100
AcDbEntity
8
0
100
AcDbLine
10
21.071315124598854
20
17.587620236790414
30
-0.49999999999999994
11
21.258815124598854
21
17.587620236790414
31
-0.49999999999999994
0
LINE
5
875
100
AcDbEntity
8
0
100
AcDbLine
10
21.071315124598854
20
21.412379763209575
30
-0.49999999999999994
11
20.977565124598854
21
21.25
31
-0.49999999999999994
0
LINE
5
876
100
AcDbEntity
8
0
100
AcDbLine
10
21.691827826491068
20
18.337620236790418
30
-0.49999999999999994
11
21.785577826491068
21
18.499999999999996
31
-0.49999999999999994
0
LINE
5
877
100
AcDbEntity
8
0
100
AcDbLine
10
20.486539720814417
20
18.249999999999996
30
-0.49999999999999994
11
20.392789720814417
21
18.412379763209579
31
-0.49999999999999994
0
LINE
5
878
100
AcDbEntity
8
0
100
AcDbLine
10
19.526764317029976
20
19.587620236790414
30
-0.49999999999999994
11
19.620514317029976
21
19.749999999999996
31
-0.49999999999999994
0
LINE
5
879
100
AcDbEntity
8
0
100
AcDbLine
10
20.825802422706637
20
22.162379763209575
30
-0.49999999999999994
11
20.638302422706634
21
22.162379763209575
31
-0.49999999999999994
0
LINE
5
880
100
AcDbEntity
8
0
100
AcDbLine
10
20.638302422706634
20
16.337620236790418
30
-0.49999999999999994
11
20.825802422706637
21
16.337620236790418
31
-0.49999999999999994
0
LINE
5
881
100
AcDbEntity
8
0
100
AcDbLine
10
21.785577826491068
20
17.999999999999996
30
-0.49999999999999994
11
21.691827826491068
21
18.162379763209575
31
-0.49999999999999994
0
LINE
5
882
100
AcDbEntity
8
0
100
AcDbLine
10
19.620514317029976
20
21.25
30
-0.49999999999999994
11
19.526764317029976
21
21.412379763209575
31
-0.49999999999999994
0
LINE
5
883
100
AcDbEntity
8
0
100
AcDbLine
10
21.691827826491068
20
18.162379763209575
30
-0.49999999999999994
11
21.504327826491064
21
18.162379763209575
31
-0.49999999999999994
0
LINE
5
884
100
AcDbEntity
8
0
100
AcDbLine
10
21.691827826491068
20
19.162379763209579
30
-0.49999999999999994
11
21.504327826491064
21
19.162379763209579
31
-0.49999999999999994
0
LINE
5
885
100
AcDbEntity
8
0
100
AcDbLine
10
20.111539720814417
20
19.249999999999996
30
-0.49999999999999994
11
20.205289720814417
21
19.087620236790418
31
-0.49999999999999994
0
LINE
5
886
100
AcDbEntity
8
0
100
AcDbLine
10
21.691827826491068
20
18.662379763209575
30
-0.49999999999999994
11
21.504327826491064
21
18.662379763209575
31
-0.49999999999999994
0
LINE
5
887
100
AcDbEntity
8
0
100
AcDbLine
10
19.093751615137759
20
19.662379763209575
30
-0.49999999999999994
11
18.906251615137759
21
19.662379763209575
31
-0.49999999999999994
0
LINE
5
888
100
AcDbEntity
8
0
100
AcDbLine
10
20.486539720814417
20
17.249999999999996
30
-0.49999999999999994
11
20.392789720814417
21
17.412379763209579
31
-0.49999999999999994
0
LINE
5
889
100
AcDbEntity
8
0
100
AcDbLine
10
19.339264317029976
20
17.587620236790414
30
-0.49999999999999994
11
19.526764317029976
21
17.587620236790414
31
-0.49999999999999994
0
LINE
5
890
100
AcDbEntity
8
0
100
AcDbLine
10
18.379488913245538
20
21.25
30
-0.49999999999999994
11
18.473238913245538
21
21.087620236790414
31
-0.49999999999999994
0
LINE
5
891
100
AcDbEntity
8
0
100
AcDbLine
10
19.620514317029976
20
19.749999999999996
30
-0.49999999999999994
11
19.526764317029976
21
19.912379763209575
31
-0.49999999999999994
0
LINE
5
892
100
AcDbEntity
8
0
100
AcDbLine
10
20.205289720814417
20
18.912379763209575
30
-0.49999999999999994
11
20.111539720814417
21
18.75
31
-0.49999999999999994
0
LINE
5
893
100
AcDbEntity
8
0
100
AcDbLine
10
21.504327826491064
20
15.837620236790416
30
-0.49999999999999994
11
21.691827826491068
21
15.837620236790416
31
-0.49999999999999994
0
LINE
5
894
100
AcDbEntity
8
0
100
AcDbLine
10
19.339264317029976
20
19.087620236790418
30
-0.49999999999999994
11
19.526764317029976
21
19.087620236790418
31
-0.49999999999999994
0
LINE
5
895
100
AcDbEntity
8
0
100
AcDbLine
10
21.504327826491064
20
19.837620236790414
30
-0.49999999999999994
11
21.691827826491068
21
19.837620236790414
31
-0.49999999999999994
0
LINE
5
896
100
AcDbEntity
8
0
100
AcDbLine
10
19.093751615137759
20
21.662379763209575
30
-0.49999999999999994
11
18.906251615137759
21
21.662379763209575
31
-0.49999999999999994
0
LINE
5
897
100
AcDbEntity
8
0
100
AcDbLine
10
21.071315124598854
20
16.087620236790414
30
-0.49999999999999994
11
21.258815124598854
21
16.087620236790414
31
-0.49999999999999994
0
LINE
5
898
100
AcDbEntity
8
0
100
AcDbLine
10
19.772277018922196
20
17.837620236790414
30
-0.49999999999999994
11
19.959777018922196
21
17.837620236790414
31
-0.49999999999999994
0
LINE
5
899
100
AcDbEntity
8
0
100
AcDbLine
10
21.691827826491068
20
19.837620236790414
30
-0.49999999999999994
11
21.785577826491068
21
19.999999999999996
31
-0.49999999999999994
0
LINE
5
900
100
AcDbEntity
8
0
100
AcDbLine
10
19.959777018922196
20
17.837620236790414
30
-0.49999999999999994
11
20.053527018922196
21
17.999999999999996
31
-0.49999999999999994
0
LINE
5
901
100
AcDbEntity
8
0
100
AcDbLine
10
21.071315124598854
20
20.587620236790414
30
-0.49999999999999994
11
21.258815124598854
21
20.587620236790414
31
-0.49999999999999994
0
LINE
5
902
100
AcDbEntity
8
0
100
AcDbLine
10
19.093751615137759
20
18.162379763209575
30
-0.49999999999999994
11
18.906251615137759
21
18.162379763209575
31
-0.49999999999999994
0
LINE
5
903
100
AcDbEntity
8
0
100
AcDbLine
10
20.205289720814417
20
16.912379763209575
30
-0.49999999999999994
11
20.111539720814417
21
16.749999999999993
31
-0.49999999999999994
0
LINE
5
904
100
AcDbEntity
8
0
100
AcDbLine
10
19.959777018922196
20
16.837620236790414
30
-0.49999999999999994
11
20.053527018922196
21
16.999999999999996
31
-0.49999999999999994
0
LINE
5
905
100
AcDbEntity
8
0
100
AcDbLine
10
21.258815124598854
20
19.412379763209579
30
-0.49999999999999994
11
21.071315124598854
21
19.412379763209579
31
-0.49999999999999994
0
LINE
5
906
100
AcDbEntity
8
0
100
AcDbLine
10
21.071315124598854
20
19.087620236790418
30
-0.49999999999999994
11
21.258815124598854
21
19.087620236790418
31
-0.49999999999999994
0
LINE
5
907
100
AcDbEntity
8
0
100
AcDbLine
10
21.691827826491068
20
22.162379763209575
30
-0.49999999999999994
11
21.504327826491064
21
22.162379763209575
31
-0.49999999999999994
0
LINE
5
908
100
AcDbEntity
8
0
100
AcDbLine
10
19.093751615137759
20
17.162379763209575
30
-0.49999999999999994
11
18.906251615137759
21
17.162379763209575
31
-0.49999999999999994
0
LINE
5
909
100
AcDbEntity
8
0
100
AcDbLine
10
22.124840528383295
20
21.912379763209579
30
-0.49999999999999994
11
21.937340528383295
21
21.912379763209579
31
-0.49999999999999994
0
LINE
5
910
100
AcDbEntity
8
0
100
AcDbLine
10
19.772277018922196
20
17.162379763209575
30
-0.49999999999999994
11
19.678527018922196
21
16.999999999999996
31
-0.49999999999999994
0
LINE
5
911
100
AcDbEntity
8
0
100
AcDbLine
10
19.620514317029976
20
19.249999999999996
30
-0.49999999999999994
11
19.526764317029976
21
19.412379763209579
31
-0.49999999999999994
0
LINE
5
912
100
AcDbEntity
8
0
100
AcDbLine
10
21.843590528383295
20
18.75
30
-0.49999999999999994
11
21.937340528383295
21
18.587620236790414
31
-0.49999999999999994
0
LINE
5
913
100
AcDbEntity
8
0
100
AcDbLine
10
20.111539720814417
20
17.249999999999996
30
-0.49999999999999994
11
20.205289720814417
21
17.087620236790414
31
-0.49999999999999994
0
LINE
5
914
100
AcDbEntity
8
0
100
AcDbLine
10
21.071315124598854
20
20.912379763209575
30
-0.49999999999999994
11
20.977565124598854
21
20.749999999999996
31
-0.49999999999999994
0
LINE
5
915
100
AcDbEntity
8
0
100
AcDbLine
10
21.258815124598854
20
17.412379763209579
30
-0.49999999999999994
11
21.071315124598854
21
17.412379763209579
31
-0.49999999999999994
0
LINE
5
916
100
AcDbEntity
8
0
100
AcDbLine
10
19.526764317029976
20
16.587620236790418
30
-0.49999999999999994
11
19.620514317029976
21
16.749999999999993
31
-0.49999999999999994
0
LINE
5
917
100
AcDbEntity
8
0
100
AcDbLine
10
21.691827826491068
20
18.837620236790414
30
-0.49999999999999994
11
21.785577826491068
21
18.999999999999996
31
-0.49999999999999994
0
LINE
5
918
100
AcDbEntity
8
0
100
AcDbLine
10
19.245514317029976
20
19.749999999999996
30
-0.49999999999999994
11
19.339264317029976
21
19.587620236790414
31
-0.49999999999999994
0
LINE
5
919
100
AcDbEntity
8
0
100
AcDbLine
10
21.504327826491064
20
16.662379763209579
30
-0.49999999999999994
11
21.410577826491064
21
16.499999999999993
31
-0.49999999999999994
0
LINE
5
920
100
AcDbEntity
8
0
100
AcDbLine
10
21.785577826491068
20
18.999999999999996
30
-0.49999999999999994
11
21.691827826491068
21
19.162379763209579
31
-0.49999999999999994
0
LINE
5
921
100
AcDbEntity
8
0
100
AcDbLine
10
20.486539720814417
20
18.75
30
-0.49999999999999994
11
20.392789720814417
21
18.912379763209575
31
-0.49999999999999994
0
LINE
5
922
100
AcDbEntity
8
0
100
AcDbLine
10
21.258815124598854
20
18.912379763209575
30
-0.49999999999999994
11
21.071315124598854
21
18.912379763209575
31
-0.49999999999999994
0
LINE
5
923
100
AcDbEntity
8
0
100
AcDbLine
10
19.093751615137759
20
17.337620236790418
30
-0.49999999999999994
11
19.187501615137759
21
17.499999999999993
31
-0.49999999999999994
0
LINE
5
924
100
AcDbEntity
8
0
100
AcDbLine
10
20.544552422706637
20
18.999999999999996
30
-0.49999999999999994
11
20.638302422706634
21
18.837620236790414
31
-0.49999999999999994
0
LINE
5
925
100
AcDbEntity
8
0
100
AcDbLine
10
21.504327826491064
20
18.837620236790414
30
-0.49999999999999994
11
21.691827826491068
21
18.837620236790414
31
-0.49999999999999994
0
LINE
5
926
100
AcDbEntity
8
0
100
AcDbLine
10
20.638302422706634
20
20.837620236790418
30
-0.49999999999999994
11
20.825802422706637
21
20.837620236790418
31
-0.49999999999999994
0
LINE
5
927
100
AcDbEntity
8
0
100
AcDbLine
10
21.785577826491068
20
18.499999999999996
30
-0.49999999999999994
11
21.691827826491068
21
18.662379763209575
31
-0.49999999999999994
0
LINE
5
928
100
AcDbEntity
8
0
100
AcDbLine
10
19.526764317029976
20
17.587620236790414
30
-0.49999999999999994
11
19.620514317029976
21
17.75
31
-0.49999999999999994
0
LINE
5
929
100
AcDbEntity
8
0
100
AcDbLine
10
21.937340528383295
20
18.412379763209579
30
-0.49999999999999994
11
21.843590528383295
21
18.249999999999996
31
-0.49999999999999994
0
LINE
5
930
100
AcDbEntity
8
0
100
AcDbLine
10
20.392789720814417
20
17.087620236790414
30
-0.49999999999999994
11
20.486539720814417
21
17.249999999999996
31
-0.49999999999999994
0
LINE
5
931
100
AcDbEntity
8
0
100
AcDbLine
10
21.843590528383295
20
18.249999999999996
30
-0.49999999999999994
11
21.937340528383295
21
18.087620236790414
31
-0.49999999999999994
0
LINE
5
932
100
AcDbEntity
8
0
100
AcDbLine
10
19.339264317029976
20
20.912379763209575
30
-0.49999999999999994
11
19.245514317029976
21
20.749999999999996
31
-0.49999999999999994
0
LINE
5
933
100
AcDbEntity
8
0
100
AcDbLine
10
21.937340528383295
20
18.087620236790414
30
-0.49999999999999994
11
22.124840528383295
21
18.087620236790414
31
-0.49999999999999994
0
LINE
5
934
100
AcDbEntity
8
0
100
AcDbLine
10
19.245514317029976
20
17.75
30
-0.49999999999999994
11
19.339264317029976
21
17.587620236790414
31
-0.49999999999999994
0
LINE
5
935
100
AcDbEntity
8
0
100
AcDbLine
10
22.124840528383295
20
18.087620236790414
30
-0.49999999999999994
11
22.218590528383295
21
18.249999999999996
31
-0.49999999999999994
0
LINE
5
936
100
AcDbEntity
8
0
100
AcDbLine
10
20.053527018922196
20
15.999999999999993
30
-0.49999999999999994
11
19.959777018922196
21
16.162379763209575
31
-0.49999999999999994
0
LINE
5
937
100
AcDbEntity
8
0
100
AcDbLine
10
21.410577826491064
20
19.5
30
-0.49999999999999994
11
21.504327826491064
21
19.337620236790414
31
-0.49999999999999994
0
LINE
5
938
100
AcDbEntity
8
0
100
AcDbLine
10
19.959777018922196
20
16.162379763209575
30
-0.49999999999999994
11
19.772277018922196
21
16.162379763209575
31
-0.49999999999999994
0
LINE
5
939
100
AcDbEntity
8
0
100
AcDbLine
10
21.258815124598854
20
20.412379763209575
30
-0.49999999999999994
11
21.071315124598854
21
20.412379763209575
31
-0.49999999999999994
0
LINE
5
940
100
AcDbEntity
8
0
100
AcDbLine
10
19.339264317029976
20
19.912379763209575
30
-0.49999999999999994
11
19.245514317029976
21
19.749999999999996
31
-0.49999999999999994
0
LINE
5
941
100
AcDbEntity
8
0
100
AcDbLine
10
22.218590528383295
20
18.249999999999996
30
-0.49999999999999994
11
22.124840528383295
21
18.412379763209579
31
-0.49999999999999994
0
LINE
5
942
100
AcDbEntity
8
0
100
AcDbLine
10
19.526764317029976
20
21.087620236790414
30
-0.49999999999999994
11
19.620514317029976
21
21.25
31
-0.49999999999999994
0
LINE
5
943
100
AcDbEntity
8
0
100
AcDbLine
10
20.638302422706634
20
18.662379763209575
30
-0.49999999999999994
11
20.544552422706637
21
18.499999999999996
31
-0.49999999999999994
0
LINE
5
944
100
AcDbEntity
8
0
100
AcDbLine
10
20.919552422706637
20
16.499999999999993
30
-0.49999999999999994
11
20.825802422706637
21
16.662379763209579
31
-0.49999999999999994
0
LINE
5
945
100
AcDbEntity
8
0
100
AcDbLine
10
20.638302422706634
20
19.837620236790414
30
-0.49999999999999994
11
20.825802422706637
21
19.837620236790414
31
-0.49999999999999994
0
LINE
5
946
100
AcDbEntity
8
0
100
AcDbLine
10
20.392789720814417
20
20.412379763209575
30
-0.49999999999999994
11
20.205289720814417
21
20.412379763209575
31
-0.49999999999999994
0
LINE
5
947
100
AcDbEntity
8
0
100
AcDbLine
10
20.977565124598854
20
21.25
30
-0.49999999999999994
11
21.071315124598854
21
21.087620236790414
31
-0.49999999999999994
0
LINE
5
948
100
AcDbEntity
8
0
100
AcDbLine
10
20.544552422706637
20
16.499999999999993
30
-0.49999999999999994
11
20.638302422706634
21
16.337620236790418
31
-0.49999999999999994
0
LINE
5
949
100
AcDbEntity
8
0
100
AcDbLine
10
21.504327826491064
20
16.337620236790418
30
-0.49999999999999994
11
21.691827826491068
21
16.337620236790418
31
-0.49999999999999994
0
LINE
5
950
100
AcDbEntity
8
0
100
AcDbLine
10
20.638302422706634
20
18.337620236790418
30
-0.49999999999999994
11
20.825802422706637
21
18.337620236790418
31
-0.49999999999999994
0
LINE
5
951
100
AcDbEntity
8
0
100
AcDbLine
10
20.544552422706637
20
17.999999999999996
30
-0.49999999999999994
11
20.638302422706634
21
17.837620236790414
31
-0.49999999999999994
0
LINE
5
952
100
AcDbEntity
8
0
100
AcDbLine
10
19.959777018922196
20
19.337620236790414
30
-0.49999999999999994
11
20.053527018922196
21
19.5
31
-0.49999999999999994
0
LINE
5
953
100
AcDbEntity
8
0
100
AcDbLine
10
20.111539720814417
20
20.249999999999996
30
-0.49999999999999994
11
20.205289720814417
21
20.087620236790418
31
-0.49999999999999994
0
LINE
5
954
100
AcDbEntity
8
0
100
AcDbLine
10
19.959777018922196
20
16.662379763209579
30
-0.49999999999999994
11
19.772277018922196
21
16.662379763209579
31
-0.49999999999999994
0
LINE
5
955
100
AcDbEntity
8
0
100
AcDbLine
10
20.977565124598854
20
21.749999999999996
30
-0.49999999999999994
11
21.071315124598854
21
21.587620236790411
31
-0.49999999999999994
0
LINE
5
956
100
AcDbEntity
8
0
100
AcDbLine
10
21.258815124598854
20
16.412379763209575
30
-0.49999999999999994
11
21.071315124598854
21
16.412379763209575
31
-0.49999999999999994
0
LINE
5
957
100
AcDbEntity
8
0
100
AcDbLine
10
18.906251615137759
20
17.662379763209579
30
-0.49999999999999994
11
18.812501615137759
21
17.499999999999993
31
-0.49999999999999994
0
LINE
5
958
100
AcDbEntity
8
0
100
AcDbLine
10
20.205289720814417
20
19.587620236790414
30
-0.49999999999999994
11
20.392789720814417
21
19.587620236790414
31
-0.49999999999999994
0
LINE
5
959
100
AcDbEntity
8
0
100
AcDbLine
10
20.638302422706634
20
17.162379763209575
30
-0.49999999999999994
11
20.544552422706637
21
16.999999999999996
31
-0.49999999999999994
0
LINE
5
960
100
AcDbEntity
8
0
100
AcDbLine
10
20.638302422706634
20
22.162379763209575
30
-0.49999999999999994
11
20.544552422706637
21
21.999999999999996
31
-0.49999999999999994
0
LINE
5
961
100
AcDbEntity
8
0
100
AcDbLine
10
20.825802422706637
20
21.162379763209579
30
-0.49999999999999994
11
20.638302422706634
21
21.162379763209579
31
-0.49999999999999994
0
LINE
5
962
100
AcDbEntity
8
0
100
AcDbLine
10
21.071315124598854
20
19.912379763209575
30
-0.49999999999999994
11
20.977565124598854
21
19.749999999999996
31
-0.49999999999999994
0
LINE
5
963
100
AcDbEntity
8
0
100
AcDbLine
10
20.111539720814417
20
20.749999999999996
30
-0.49999999999999994
11
20.205289720814417
21
20.587620236790414
31
-0.49999999999999994
0
LINE
5
964
100
AcDbEntity
8
0
100
AcDbLine
10
20.638302422706634
20
18.837620236790414
30
-0.49999999999999994
11
20.825802422706637
21
18.837620236790414
31
-0.49999999999999994
0
LINE
5
965
100
AcDbEntity
8
0
100
AcDbLine
10
21.352565124598854
20
18.75
30
-0.49999999999999994
11
21.258815124598854
21
18.912379763209575
31
-0.49999999999999994
0
LINE
5
966
100
AcDbEntity
8
0
100
AcDbLine
10
20.205289720814417
20
19.912379763209575
30
-0.49999999999999994
11
20.111539720814417
21
19.749999999999996
31
-0.49999999999999994
0
LINE
5
967
100
AcDbEntity
8
0
100
AcDbLine
10
20.544552422706637
20
19.5
30
-0.49999999999999994
11
20.638302422706634
21
19.337620236790414
31
-0.49999999999999994
0
LINE
5
968
100
AcDbEntity
8
0
100
AcDbLine
10
20.638302422706634
20
17.337620236790418
30
-0.49999999999999994
11
20.825802422706637
21
17.337620236790418
31
-0.49999999999999994
0
LINE
5
969
100
AcDbEntity
8
0
100
AcDbLine
10
20.205289720814417
20
17.912379763209575
30
-0.49999999999999994
11
20.111539720814417
21
17.75
31
-0.49999999999999994
0
LINE
5
970
100
AcDbEntity
8
0
100
AcDbLine
10
19.959777018922196
20
21.837620236790411
30
-0.49999999999999994
11
20.053527018922196
21
21.999999999999996
31
-0.49999999999999994
0
LINE
5
971
100
AcDbEntity
8
0
100
AcDbLine
10
20.486539720814417
20
21.749999999999996
30
-0.49999999999999994
11
20.392789720814417
21
21.912379763209579
31
-0.49999999999999994
0
LINE
5
972
100
AcDbEntity
8
0
100
AcDbLine
10
20.825802422706637
20
17.162379763209575
30
-0.49999999999999994
11
20.638302422706634
21
17.162379763209575
31
-0.49999999999999994
0
LINE
5
973
100
AcDbEntity
8
0
100
AcDbLine
10
21.504327826491064
20
17.662379763209579
30
-0.49999999999999994
11
21.410577826491064
21
17.499999999999993
31
-0.49999999999999994
0
LINE
5
974
100
AcDbEntity
8
0
100
AcDbLine
10
22.124840528383295
20
16.087620236790414
30
-0.49999999999999994
11
22.218590528383295
21
16.249999999999996
31
-0.49999999999999994
0
LINE
5
975
100
AcDbEntity
8
0
100
AcDbLine
10
19.093751615137759
20
16.837620236790414
30
-0.49999999999999994
11
19.187501615137759
21
16.999999999999996
31
-0.49999999999999994
0
LINE
5
976
100
AcDbEntity
8
0
100
AcDbLine
10
22.218590528383295
20
16.249999999999996
30
-0.49999999999999994
11
22.124840528383295
21
16.412379763209575
31
-0.49999999999999994
0
LINE
5
977
100
AcDbEntity
8
0
100
AcDbLine
10
18.812501615137759
20
17.499999999999993
30
-0.49999999999999994
11
18.906251615137759
21
17.337620236790418
31
-0.49999999999999994
0
LINE
5
978
100
AcDbEntity
8
0
100
AcDbLine
10
22.124840528383295
20
16.412379763209575
30
-0.49999999999999994
11
21.937340528383295
21
16.412379763209575
31
-0.49999999999999994
0
LINE
5
979
100
AcDbEntity
8
0
100
AcDbLine
10
19.678527018922196
20
16.999999999999996
30
-0.49999999999999994
11
19.772277018922196
21
16.837620236790414
31
-0.49999999999999994
0
LINE
5
980
100
AcDbEntity
8
0
100
AcDbLine
10
19.093751615137759
20
22.162379763209575
30
-0.49999999999999994
11
18.906251615137759
21
22.162379763209575
31
-0.49999999999999994
0
LINE
5
981
100
AcDbEntity
8
0
100
AcDbLine
10
20.111539720814417
20
21.749999999999996
30
-0.49999999999999994
11
20.205289720814417
21
21.587620236790411
31
-0.49999999999999994
0
LINE
5
982
100
AcDbEntity
8
0
100
AcDbLine
10
21.937340528383295
20
16.912379763209575
30
-0.49999999999999994
11
21.843590528383295
21
16.749999999999993
31
-0.49999999999999994
0
LINE
5
983
100
AcDbEntity
8
0
100
AcDbLine
10
21.785577826491068
20
20.5
30
-0.49999999999999994
11
21.691827826491068
21
20.662379763209575
31
-0.49999999999999994
0
LINE
5
984
100
AcDbEntity
8
0
100
AcDbLine
10
18.906251615137759
20
21.837620236790411
30
-0.49999999999999994
11
19.093751615137759
21
21.837620236790411
31
-0.49999999999999994
0
LINE
5
985
100
AcDbEntity
8
0
100
AcDbLine
10
21.691827826491068
20
20.662379763209575
30
-0.49999999999999994
11
21.504327826491064
21
20.662379763209575
31
-0.49999999999999994
0
LINE
5
986
100
AcDbEntity
8
0
100
AcDbLine
10
18.906251615137759
20
18.162379763209575
30
-0.49999999999999994
11
18.812501615137759
21
17.999999999999996
31
-0.49999999999999994
0
LINE
5
987
100
AcDbEntity
8
0
100
AcDbLine
10
19.772277018922196
20
22.162379763209575
30
-0.49999999999999994
11
19.678527018922196
21
21.999999999999996
31
-0.49999999999999994
0
LINE
5
988
100
AcDbEntity
8
0
100
AcDbLine
10
21.504327826491064
20
21.162379763209579
30
-0.49999999999999994
11
21.410577826491064
21
20.999999999999996
31
-0.49999999999999994
0
LINE
5
989
100
AcDbEntity
8
0
100
AcDbLine
10
21.937340528383295
20
19.412379763209579
30
-0.49999999999999994
11
21.843590528383295
21
19.249999999999996
31
-0.49999999999999994
0
LINE
5
990
100
AcDbEntity
8
0
100
AcDbLine
10
20.205289720814417
20
20.587620236790414
30
-0.49999999999999994
11
20.392789720814417
21
20.587620236790414
31
-0.49999999999999994
0
LINE
5
991
100
AcDbEntity
8
0
100
AcDbLine
10
19.526764317029976
20
20.412379763209575
30
-0.49999999999999994
11
19.339264317029976
21
20.412379763209575
31
-0.49999999999999994
0
LINE
5
992
100
AcDbEntity
8
0
100
AcDbLine
10
21.691827826491068
20
16.837620236790414
30
-0.49999999999999994
11
21.785577826491068
21
16.999999999999996
31
-0.49999999999999994
0
LINE
5
993
100
AcDbEntity
8
0
100
AcDbLine
10
18.906251615137759
20
21.162379763209579
30
-0.49999999999999994
11
18.812501615137759
21
20.999999999999996
31
-0.49999999999999994
0
LINE
5
994
100
AcDbEntity
8
0
100
AcDbLine
10
21.843590528383295
20
19.249999999999996
30
-0.49999999999999994
11
21.937340528383295
21
19.087620236790418
31
-0.49999999999999994
0
LINE
5
995
100
AcDbEntity
8
0
100
AcDbLine
10
18.812501615137759
20
17.999999999999996
30
-0.49999999999999994
11
18.906251615137759
21
17.837620236790414
31
-0.49999999999999994
0
LINE
5
996
100
AcDbEntity
8
0
100
AcDbLine
10
20.205289720814417
20
17.587620236790414
30
-0.49999999999999994
11
20.392789720814417
21
17.587620236790414
31
-0.49999999999999994
0
LINE
5
997
100
AcDbEntity
8
0
100
AcDbLine
10
18.906251615137759
20
20.837620236790418
30
-0.49999999999999994
11
19.093751615137759
21
20.837620236790418
31
-0.49999999999999994
0
LINE
5
998
100
AcDbEntity
8
0
100
AcDbLine
10
21.937340528383295
20
19.087620236790418
30
-0.49999999999999994
11
22.124840528383295
21
19.087620236790418
31
-0.49999999999999994
0
LINE
5
999
100
AcDbEntity
8
0
100
AcDbLine
10
19.093751615137759
20
16.162379763209575
30
-0.49999999999999994
11
18.906251615137759
21
16.162379763209575
31
-0.49999999999999994
0
LINE
5
1000
100
AcDbEntity
8
0
100
AcDbLine
10
22.124840528383295
20
19.087620236790418
30
-0.49999999999999994
11
22.218590528383295
21
19.249999999999996
31
-0.49999999999999994
0
LINE
5
1001
100
AcDbEntity
8
0
100
AcDbLine
10
18.906251615137759
20
20.337620236790414
30
-0.49999999999999994
11
19.093751615137759
21
20.337620236790414
31
-0.49999999999999994
0
LINE
5
1002
100
AcDbEntity
8
0
100
AcDbLine
10
22.218590528383295
20
19.249999999999996
30
-0.49999999999999994
11
22.124840528383295
21
19.412379763209579
31
-0.49999999999999994
0
LINE
5
1003
100
AcDbEntity
8
0
100
AcDbLine
10
19.187501615137759
20
20.5
30
-0.49999999999999994
11
19.093751615137759
21
20.662379763209575
31
-0.49999999999999994
0
LINE
5
1004
100
AcDbEntity
8
0
100
AcDbLine
10
19.093751615137759
20
21.837620236790411
30
-0.49999999999999994
11
19.187501615137759
21
21.999999999999996
31
-0.49999999999999994
0
LINE
5
1005
100
AcDbEntity
8
0
100
AcDbLine
10
22.124840528383295
20
19.412379763209579
30
-0.49999999999999994
11
21.937340528383295
21
19.412379763209579
31
-0.49999999999999994
0
LINE
5
1006
100
AcDbEntity
8
0
100
AcDbLine
10
21.691827826491068
20
17.162379763209575
30
-0.49999999999999994
11
21.504327826491064
21
17.162379763209575
31
-0.49999999999999994
0
LINE
5
1007
100
AcDbEntity
8
0
100
AcDbLine
10
19.678527018922196
20
18.999999999999996
30
-0.49999999999999994
11
19.772277018922196
21
18.837620236790414
31
-0.49999999999999994
0
LINE
5
1008
100
AcDbEntity
8
0
100
AcDbLine
10
21.071315124598854
20
17.912379763209575
30
-0.49999999999999994
11
20.977565124598854
21
17.75
31
-0.49999999999999994
0
LINE
5
1009
100
AcDbEntity
8
0
100
AcDbLine
10
19.678527018922196
20
19.999999999999996
30
-0.49999999999999994
11
19.772277018922196
21
19.837620236790414
31
-0.49999999999999994
0
LINE
5
1010
100
AcDbEntity
8
0
100
AcDbLine
10
19.959777018922196
20
18.837620236790414
30
-0.49999999999999994
11
20.053527018922196
21
18.999999999999996
31
-0.49999999999999994
0
LINE
5
1011
100
AcDbEntity
8
0
100
AcDbLine
10
18.754488913245538
20
21.749999999999996
30
-0.49999999999999994
11
18.660738913245538
21
21.912379763209579
31
-0.49999999999999994
0
LINE
5
1012
100
AcDbEntity
8
0
100
AcDbLine
10
20.111539720814417
20
17.75
30
-0.49999999999999994
11
20.205289720814417
21
17.587620236790414
31
-0.49999999999999994
0
LINE
5
1013
100
AcDbEntity
8
0
100
AcDbLine
10
19.526764317029976
20
16.912379763209575
30
-0.49999999999999994
11
19.339264317029976
21
16.912379763209575
31
-0.49999999999999994
0
LINE
5
1014
100
AcDbEntity
8
0
100
AcDbLine
10
21.410577826491064
20
15.999999999999993
30
-0.49999999999999994
11
21.504327826491064
21
15.837620236790416
31
-0.49999999999999994
0
LINE
5
1015
100
AcDbEntity
8
0
100
AcDbLine
10
19.526764317029976
20
19.912379763209575
30
-0.49999999999999994
11
19.339264317029976
21
19.912379763209575
31
-0.49999999999999994
0
LINE
5
1016
100
AcDbEntity
8
0
100
AcDbLine
10
19.772277018922196
20
20.837620236790418
30
-0.49999999999999994
11
19.959777018922196
21
20.837620236790418
31
-0.49999999999999994
0
LINE
5
1017
100
AcDbEntity
8
0
100
AcDbLine
10
20.486539720814417
20
20.249999999999996
30
-0.49999999999999994
11
20.392789720814417
21
20.412379763209575
31
-0.49999999999999994
0
LINE
5
1018
100
AcDbEntity
8
0
100
AcDbLine
10
21.937340528383295
20
19.912379763209575
30
-0.49999999999999994
11
21.843590528383295
21
19.749999999999996
31
-0.49999999999999994
0
LINE
5
1019
100
AcDbEntity
8
0
100
AcDbLine
10
19.772277018922196
20
16.337620236790418
30
-0.49999999999999994
11
19.959777018922196
21
16.337620236790418
31
-0.49999999999999994
0
LINE
5
1020
100
AcDbEntity
8
0
100
AcDbLine
10
21.843590528383295
20
19.749999999999996
30
-0.49999999999999994
11
21.937340528383295
21
19.587620236790414
31
-0.49999999999999994
0
LINE
5
1021
100
AcDbEntity
8
0
100
AcDbLine
10
18.906251615137759
20
18.837620236790414
30
-0.49999999999999994
11
19.093751615137759
21
18.837620236790414
31
-0.49999999999999994
0
LINE
5
1022
100
AcDbEntity
8
0
100
AcDbLine
10
21.937340528383295
20
19.587620236790414
30
-0.49999999999999994
11
22.124840528383295
21
19.587620236790414
31
-0.49999999999999994
0
LINE
5
1023
100
AcDbEntity
8
0
100
AcDbLine
10
19.093751615137759
20
17.662379763209579
30
-0.49999999999999994
11
18.906251615137759
21
17.662379763209579
31
-0.49999999999999994
0
LINE
5
1024
100
AcDbEntity
8
0
100
AcDbLine
10
22.124840528383295
20
19.587620236790414
30
-0.49999999999999994
11
22.218590528383295
21
19.749999999999996
31
-0.49999999999999994
0
LINE
5
1025
100
AcDbEntity
8
0
100
AcDbLine
10
19.187501615137759
20
17.999999999999996
30
-0.49999999999999994
11
19.093751615137759
21
18.162379763209575
31
-0.49999999999999994
0
LINE
5
1026
100
AcDbEntity
8
0
100
AcDbLine
10
22.218590528383295
20
19.749999999999996
30
-0.49999999999999994
11
22.124840528383295
21
19.912379763209575
31
-0.49999999999999994
0
LINE
5
1027
100
AcDbEntity
8
0
100
AcDbLine
10
19.187501615137759
20
15.999999999999993
30
-0.49999999999999994
11
19.093751615137759
21
16.162379763209575
31
-0.49999999999999994
0
LINE
5
1028
100
AcDbEntity
8
0
100
AcDbLine
10
22.124840528383295
20
19.912379763209575
30
-0.49999999999999994
11
21.937340528383295
21
19.912379763209575
31
-0.49999999999999994
0
LINE
5
1029
100
AcDbEntity
8
0
100
AcDbLine
10
20.638302422706634
20
20.162379763209579
30
-0.49999999999999994
11
20.544552422706637
21
19.999999999999996
31
-0.49999999999999994
0
LINE
5
1030
100
AcDbEntity
8
0
100
AcDbLine
10
20.486539720814417
20
19.749999999999996
30
-0.49999999999999994
11
20.392789720814417
21
19.912379763209575
31
-0.49999999999999994
0
LINE
5
1031
100
AcDbEntity
8
0
100
AcDbLine
10
20.638302422706634
20
18.162379763209575
30
-0.49999999999999994
11
20.544552422706637
21
17.999999999999996
31
-0.49999999999999994
0
LINE
5
1032
100
AcDbEntity
8
0
100
AcDbLine
10
22.124840528383295
20
20.087620236790418
30
-0.49999999999999994
11
22.218590528383295
21
20.249999999999996
31
-0.49999999999999994
0
LINE
5
1033
100
AcDbEntity
8
0
100
AcDbLine
10
20.919552422706637
20
18.499999999999996
30
-0.49999999999999994
11
20.825802422706637
21
18.662379763209575
31
-0.49999999999999994
0
LINE
5
1034
100
AcDbEntity
8
0
100
AcDbLine
10
21.410577826491064
20
16.999999999999996
30
-0.49999999999999994
11
21.504327826491064
21
16.837620236790414
31
-0.49999999999999994
0
LINE
5
1035
100
AcDbEntity
8
0
100
AcDbLine
10
18.906251615137759
20
18.662379763209575
30
-0.49999999999999994
11
18.812501615137759
21
18.499999999999996
31
-0.49999999999999994
0
LINE
5
1036
100
AcDbEntity
8
0
100
AcDbLine
10
20.205289720814417
20
21.912379763209579
30
-0.49999999999999994
11
20.111539720814417
21
21.749999999999996
31
-0.49999999999999994
0
LINE
5
1037
100
AcDbEntity
8
0
100
AcDbLine
10
18.812501615137759
20
20.999999999999996
30
-0.49999999999999994
11
18.906251615137759
21
20.837620236790418
31
-0.49999999999999994
0
LINE
5
1038
100
AcDbEntity
8
0
100
AcDbLine
10
20.486539720814417
20
19.249999999999996
30
-0.49999999999999994
11
20.392789720814417
21
19.412379763209579
31
-0.49999999999999994
0
LINE
5
1039
100
AcDbEntity
8
0
100
AcDbLine
10
19.339264317029976
20
19.587620236790414
30
-0.49999999999999994
11
19.526764317029976
21
19.587620236790414
31
-0.49999999999999994
0
LINE
5
1040
100
AcDbEntity
8
0
100
AcDbLine
10
20.825802422706637
20
16.337620236790418
30
-0.49999999999999994
11
20.919552422706637
21
16.499999999999993
31
-0.49999999999999994
0
LINE
5
1041
100
AcDbEntity
8
0
100
AcDbLine
10
19.245514317029976
20
18.249999999999996
30
-0.49999999999999994
11
19.339264317029976
21
18.087620236790414
31
-0.49999999999999994
0
LINE
5
1042
100
AcDbEntity
8
0
100
AcDbLine
10
20.392789720814417
20
21.412379763209575
30
-0.49999999999999994
11
20.205289720814417
21
21.412379763209575
31
-0.49999999999999994
0
LINE
5
1043
100
AcDbEntity
8
0
100
AcDbLine
10
19.187501615137759
20
21.999999999999996
30
-0.49999999999999994
11
19.093751615137759
21
22.162379763209575
31
-0.49999999999999994
0
LINE
5
1044
100
AcDbEntity
8
0
100
AcDbLine
10
22.218590528383295
20
20.249999999999996
30
-0.49999999999999994
11
22.124840528383295
21
20.412379763209575
31
-0.49999999999999994
0
LINE
5
1045
100
AcDbEntity
8
0
100
AcDbLine
10
18.906251615137759
20
18.337620236790418
30
-0.49999999999999994
11
19.093751615137759
21
18.337620236790418
31
-0.49999999999999994
0
LINE
5
1046
100
AcDbEntity
8
0
100
AcDbLine
10
21.258815124598854
20
20.912379763209575
30
-0.49999999999999994
11
21.071315124598854
21
20.912379763209575
31
-0.49999999999999994
0
LINE
5
1047
100
AcDbEntity
8
0
100
AcDbLine
10
21.937340528383295
20
20.912379763209575
30
-0.49999999999999994
11
21.843590528383295
21
20.749999999999996
31
-0.49999999999999994
0
LINE
5
1048
100
AcDbEntity
8
0
100
AcDbLine
10
20.825802422706637
20
16.837620236790414
30
-0.49999999999999994
11
20.919552422706637
21
16.999999999999996
31
-0.49999999999999994
0
LINE
5
1049
100
AcDbEntity
8
0
100
AcDbLine
10
19.245514317029976
20
16.249999999999996
30
-0.49999999999999994
11
19.339264317029976
21
16.087620236790414
31
-0.49999999999999994
0
LINE
5
1050
100
AcDbEntity
8
0
100
AcDbLine
10
21.410577826491064
20
21.499999999999996
30
-0.49999999999999994
11
21.504327826491064
21
21.337620236790414
31
-0.49999999999999994
0
LINE
5
1051
100
AcDbEntity
8
0
100
AcDbLine
10
18.906251615137759
20
15.837620236790416
30
-0.49999999999999994
11
19.093751615137759
21
15.837620236790416
31
-0.49999999999999994
0
LINE
5
1052
100
AcDbEntity
8
0
100
AcDbLine
10
20.205289720814417
20
21.087620236790414
30
-0.49999999999999994
11
20.392789720814417
21
21.087620236790414
31
-0.49999999999999994
0
LINE
5
1053
100
AcDbEntity
8
0
100
AcDbLine
10
19.620514317029976
20
20.249999999999996
30
-0.49999999999999994
11
19.526764317029976
21
20.412379763209575
31
-0.49999999999999994
0
LINE
5
1054
100
AcDbEntity
8
0
100
AcDbLine
10
20.919552422706637
20
20.999999999999996
30
-0.49999999999999994
11
20.825802422706637
21
21.162379763209579
31
-0.49999999999999994
0
LINE
5
1055
100
AcDbEntity
8
0
100
AcDbLine
10
18.812501615137759
20
16.999999999999996
30
-0.49999999999999994
11
18.906251615137759
21
16.837620236790414
31
-0.49999999999999994
0
LINE
5
1056
100
AcDbEntity
8
0
100
AcDbLine
10
21.504327826491064
20
21.662379763209575
30
-0.49999999999999994
11
21.410577826491064
21
21.499999999999996
31
-0.49999999999999994
0
LINE
5
1057
100
AcDbEntity
8
0
100
AcDbLine
10
19.093751615137759
20
19.162379763209579
30
-0.49999999999999994
11
18.906251615137759
21
19.162379763209579
31
-0.49999999999999994
0
LINE
5
1058
100
AcDbEntity
8
0
100
AcDbLine
10
21.504327826491064
20
21.337620236790414
30
-0.49999999999999994
11
21.691827826491068
21
21.337620236790414
31
-0.49999999999999994
0
LINE
5
1059
100
AcDbEntity
8
0
100
AcDbLine
10
18.906251615137759
20
22.162379763209575
30
-0.49999999999999994
11
18.812501615137759
21
21.999999999999996
31
-0.49999999999999994
0
LINE
5
1060
100
AcDbEntity
8
0
100
AcDbLine
10
20.544552422706637
20
21.499999999999996
30
-0.49999999999999994
11
20.638302422706634
21
21.337620236790414
31
-0.49999999999999994
0
LINE
5
1061
100
AcDbEntity
8
0
100
AcDbLine
10
19.959777018922196
20
19.662379763209575
30
-0.49999999999999994
11
19.772277018922196
21
19.662379763209575
31
-0.49999999999999994
0
LINE
5
1062
100
AcDbEntity
8
0
100
AcDbLine
10
20.205289720814417
20
19.412379763209579
30
-0.49999999999999994
11
20.111539720814417
21
19.249999999999996
31
-0.49999999999999994
0
LINE
5
1063
100
AcDbEntity
8
0
100
AcDbLine
10
19.772277018922196
20
19.837620236790414
30
-0.49999999999999994
11
19.959777018922196
21
19.837620236790414
31
-0.49999999999999994
0
LINE
5
1064
100
AcDbEntity
8
0
100
AcDbLine
10
20.205289720814417
20
18.587620236790414
30
-0.49999999999999994
11
20.392789720814417
21
18.587620236790414
31
-0.49999999999999994
0
LINE
5
1065
100
AcDbEntity
8
0
100
AcDbLine
10
20.825802422706637
20
19.337620236790414
30
-0.49999999999999994
11
20.919552422706637
21
19.5
31
-0.49999999999999994
0
LINE
5
1066
100
AcDbEntity
8
0
100
AcDbLine
10
19.526764317029976
20
18.912379763209575
30
-0.49999999999999994
11
19.339264317029976
21
18.912379763209575
31
-0.49999999999999994
0
LINE
5
1067
100
AcDbEntity
8
0
100
AcDbLine
10
20.977565124598854
20
20.249999999999996
30
-0.49999999999999994
11
21.071315124598854
21
20.087620236790418
31
-0.49999999999999994
0
LINE
5
1068
100
AcDbEntity
8
0
100
AcDbLine
10
20.544552422706637
20
15.999999999999993
30
-0.49999999999999994
11
20.638302422706634
21
15.837620236790416
31
-0.49999999999999994
0
LINE
5
1069
100
AcDbEntity
8
0
100
AcDbLine
10
20.638302422706634
20
21.337620236790414
30
-0.49999999999999994
11
20.825802422706637
21
21.337620236790414
31
-0.49999999999999994
0
LINE
5
1070
100
AcDbEntity
8
0
100
AcDbLine
10
21.352565124598854
20
16.249999999999996
30
-0.49999999999999994
11
21.258815124598854
21
16.412379763209575
31
-0.49999999999999994
0
LINE
5
1071
100
AcDbEntity
8
0
100
AcDbLine
10
18.473238913245538
20
21.087620236790414
30
-0.49999999999999994
11
18.660738913245538
21
21.087620236790414
31
-0.49999999999999994
0
LINE
5
1072
100
AcDbEntity
8
0
100
AcDbLine
10
21.937340528383295
20
21.087620236790414
30
-0.49999999999999994
11
22.124840528383295
21
21.087620236790414
31
-0.49999999999999994
0
LINE
5
1073
100
AcDbEntity
8
0
100
AcDbLine
10
19.093751615137759
20
17.837620236790414
30
-0.49999999999999994
11
19.187501615137759
21
17.999999999999996
31
-0.49999999999999994
0
LINE
5
1074
100
AcDbEntity
8
0
100
AcDbLine
10
22.124840528383295
20
21.087620236790414
30
-0.49999999999999994
11
22.218590528383295
21
21.25
31
-0.49999999999999994
0
LINE
5
1075
100
AcDbEntity
8
0
100
AcDbLine
10
19.959777018922196
20
17.162379763209575
30
-0.49999999999999994
11
19.772277018922196
21
17.162379763209575
31
-0.49999999999999994
0
LINE
5
1076
100
AcDbEntity
8
0
100
AcDbLine
10
22.218590528383295
20
21.25
30
-0.49999999999999994
11
22.124840528383295
21
21.412379763209575
31
-0.49999999999999994
0
LINE
5
1077
100
AcDbEntity
8
0
100
AcDbLine
10
19.339264317029976
20
18.412379763209579
30
-0.49999999999999994
11
19.245514317029976
21
18.249999999999996
31
-0.49999999999999994
0
LINE
5
1078
100
AcDbEntity
8
0
100
AcDbLine
10
22.124840528383295
20
21.412379763209575
30
-0.49999999999999994
11
21.937340528383295
21
21.412379763209575
31
-0.49999999999999994
0
LINE
5
1079
100
AcDbEntity
8
0
100
AcDbLine
10
19.678527018922196
20
15.999999999999993
30
-0.49999999999999994
11
19.772277018922196
21
15.837620236790416
31
-0.49999999999999994
0
LINE
5
1080
100
AcDbEntity
8
0
100
AcDbLine
10
20.205289720814417
20
19.087620236790418
30
-0.49999999999999994
11
20.392789720814417
21
19.087620236790418
31
-0.49999999999999994
0
LINE
5
1081
100
AcDbEntity
8
0
100
AcDbLine
10
19.093751615137759
20
18.337620236790418
30
-0.49999999999999994
11
19.187501615137759
21
18.499999999999996
31
-0.49999999999999994
0
LINE
5
1082
100
AcDbEntity
8
0
100
AcDbLine
10
20.111539720814417
20
21.25
30
-0.49999999999999994
11
20.205289720814417
21
21.087620236790414
31
-0.49999999999999994
0
LINE
5
1083
100
AcDbEntity
8
0
100
AcDbLine
10
18.660738913245538
20
21.587620236790411
30
-0.49999999999999994
11
18.754488913245538
21
21.749999999999996
31
-0.49999999999999994
0
LINE
5
1084
100
AcDbEntity
8
0
100
AcDbLine
10
20.544552422706637
20
20.999999999999996
30
-0.49999999999999994
11
20.638302422706634
21
20.837620236790418
31
-0.49999999999999994
0
LINE
5
1085
100
AcDbEntity
8
0
100
AcDbLine
10
22.124840528383295
20
20.587620236790414
30
-0.49999999999999994
11
22.218590528383295
21
20.749999999999996
31
-0.49999999999999994
0
LINE
5
1086
100
AcDbEntity
8
0
100
AcDbLine
10
19.187501615137759
20
18.499999999999996
30
-0.49999999999999994
11
19.093751615137759
21
18.662379763209575
31
-0.49999999999999994
0
LINE
5
1087
100
AcDbEntity
8
0
100
AcDbLine
10
20.053527018922196
20
20.999999999999996
30
-0.49999999999999994
11
19.959777018922196
21
21.162379763209579
31
-0.49999999999999994
0
LINE
5
1088
100
AcDbEntity
8
0
100
AcDbLine
10
19.187501615137759
20
18.999999999999996
30
-0.49999999999999994
11
19.093751615137759
21
19.162379763209579
31
-0.49999999999999994
0
LINE
5
1089
100
AcDbEntity
8
0
100
AcDbLine
10
22.218590528383295
20
20.749999999999996
30
-0.49999999999999994
11
22.124840528383295
21
20.912379763209575
31
-0.49999999999999994
0
LINE
5
1090
100
AcDbEntity
8
0
100
AcDbLine
10
18.812501615137759
20
20.5
30
-0.49999999999999994
11
18.906251615137759
21
20.337620236790414
31
-0.49999999999999994
0
LINE
5
1091
100
AcDbEntity
8
0
100
AcDbLine
10
21.352565124598854
20
20.249999999999996
30
-0.49999999999999994
11
21.258815124598854
21
20.412379763209575
31
-0.49999999999999994
0
LINE
5
1092
100
AcDbEntity
8
0
100
AcDbLine
10
19.093751615137759
20
20.662379763209575
30
-0.49999999999999994
11
18.906251615137759
21
20.662379763209575
31
-0.49999999999999994
0
LINE
5
1093
100
AcDbEntity
8
0
100
AcDbLine
10
21.937340528383295
20
17.587620236790414
30
-0.49999999999999994
11
22.124840528383295
21
17.587620236790414
31
-0.49999999999999994
0
LINE
5
1094
100
AcDbEntity
8
0
100
AcDbLine
10
19.093751615137759
20
16.662379763209579
30
-0.49999999999999994
11
18.906251615137759
21
16.662379763209579
31
-0.49999999999999994
0
LINE
5
1095
100
AcDbEntity
8
0
100
AcDbLine
10
22.124840528383295
20
20.912379763209575
30
-0.49999999999999994
11
21.937340528383295
21
20.912379763209575
31
-0.49999999999999994
0
LINE
5
1096
100
AcDbEntity
8
0
100
AcDbLine
10
19.339264317029976
20
17.087620236790414
30
-0.49999999999999994
11
19.526764317029976
21
17.087620236790414
31
-0.49999999999999994
0
LINE
5
1097
100
AcDbEntity
8
0
100
AcDbLine
10
21.937340528383295
20
21.412379763209575
30
-0.49999999999999994
11
21.843590528383295
21
21.25
31
-0.49999999999999994
0
LINE
5
1098
100
AcDbEntity
8
0
100
AcDbLine
10
19.959777018922196
20
17.337620236790418
30
-0.49999999999999994
11
20.053527018922196
21
17.499999999999993
31
-0.49999999999999994
0
LINE
5
1099
100
AcDbEntity
8
0
100
AcDbLine
10
21.843590528383295
20
21.25
30
-0.49999999999999994
11
21.937340528383295
21
21.087620236790414
31
-0.49999999999999994
0
LINE
5
1100
100
AcDbEntity
8
0
100
AcDbLine
10
19.339264317029976
20
17.412379763209579
30
-0.49999999999999994
11
19.245514317029976
21
17.249999999999996
31
-0.49999999999999994
0
LINE
5
1101
100
AcDbEntity
8
0
100
AcDbLine
10
21.258815124598854
20
17.087620236790414
30
-0.49999999999999994
11
21.352565124598854
21
17.249999999999996
31
-0.49999999999999994
0
LINE
5
1102
100
AcDbEntity
8
0
100
AcDbLine
10
19.959777018922196
20
17.662379763209579
30
-0.49999999999999994
11
19.772277018922196
21
17.662379763209579
31
-0.49999999999999994
0
LINE
5
1103
100
AcDbEntity
8
0
100
AcDbLine
10
21.352565124598854
20
20.749999999999996
30
-0.49999999999999994
11
21.258815124598854
21
20.912379763209575
31
-0.49999999999999994
0
LINE
5
1104
100
AcDbEntity
8
0
100
AcDbLine
10
20.977565124598854
20
16.749999999999993
30
-0.49999999999999994
11
21.071315124598854
21
16.587620236790418
31
-0.49999999999999994
0
LINE
5
1105
100
AcDbEntity
8
0
100
AcDbLine
10
19.620514317029976
20
20.749999999999996
30
-0.49999999999999994
11
19.526764317029976
21
20.912379763209575
31
-0.49999999999999994
0
LINE
5
1106
100
AcDbEntity
8
0
100
AcDbLine
10
19.959777018922196
20
20.837620236790418
30
-0.49999999999999994
11
20.053527018922196
21
20.999999999999996
31
-0.49999999999999994
0
LINE
5
1107
100
AcDbEntity
8
0
100
AcDbLine
10
19.245514317029976
20
20.249999999999996
30
-0.49999999999999994
11
19.339264317029976
21
20.087620236790418
31
-0.49999999999999994
0
LINE
5
1108
100
AcDbEntity
8
0
100
AcDbLine
10
21.691827826491068
20
21.337620236790414
30
-0.49999999999999994
11
21.785577826491068
21
21.499999999999996
31
-0.49999999999999994
0
LINE
5
1109
100
AcDbEntity
8
0
100
AcDbLine
10
18.906251615137759
20
17.337620236790418
30
-0.49999999999999994
11
19.093751615137759
21
17.337620236790418
31
-0.49999999999999994
0
LINE
5
1110
100
AcDbEntity
8
0
100
AcDbLine
10
21.691827826491068
20
16.162379763209586
30
-0.49999999999999994
11
21.504327826491064
21
16.162379763209586
31
-0.49999999999999994
0
LINE
5
1111
100
AcDbEntity
8
0
100
AcDbLine
10
21.691827826491068
20
17.337620236790418
30
-0.49999999999999994
11
21.785577826491068
21
17.499999999999993
31
-0.49999999999999994
0
LINE
5
1112
100
AcDbEntity
8
0
100
AcDbLine
10
20.392789720814417
20
17.587620236790414
30
-0.49999999999999994
11
20.486539720814417
21
17.75
31
-0.49999999999999994
0
LINE
5
1113
100
AcDbEntity
8
0
100
AcDbLine
10
18.473238913245538
20
21.912379763209579
30
-0.49999999999999994
11
18.379488913245538
21
21.749999999999996
31
-0.49999999999999994
0
LINE
5
1114
100
AcDbEntity
8
0
100
AcDbLine
10
21.258815124598854
20
21.412379763209575
30
-0.49999999999999994
11
21.071315124598854
21
21.412379763209575
31
-0.49999999999999994
0
LINE
5
1115
100
AcDbEntity
8
0
100
AcDbLine
10
19.620514317029976
20
16.249999999999996
30
-0.49999999999999994
11
19.526764317029976
21
16.412379763209575
31
-0.49999999999999994
0
LINE
5
1116
100
AcDbEntity
8
0
100
AcDbLine
10
22.218590528383295
20
17.75
30
-0.49999999999999994
11
22.124840528383295
21
17.912379763209575
31
-0.49999999999999994
0
LINE
5
1117
100
AcDbEntity
8
0
100
AcDbLine
10
19.678527018922196
20
17.999999999999996
30
-0.49999999999999994
11
19.772277018922196
21
17.837620236790414
31
-0.49999999999999994
0
LINE
5
1118
100
AcDbEntity
8
0
100
AcDbLine
10
22.124840528383295
20
17.912379763209575
30
-0.49999999999999994
11
21.937340528383295
21
17.912379763209575
31
-0.49999999999999994
0
LINE
5
1119
100
AcDbEntity
8
0
100
AcDbLine
10
19.245514317029976
20
21.749999999999996
30
-0.49999999999999994
11
19.339264317029976
21
21.587620236790411
31
-0.49999999999999994
0
LINE
5
1120
100
AcDbEntity
8
0
100
AcDbLine
10
20.392789720814417
20
18.912379763209575
30
-0.49999999999999994
11
20.205289720814417
21
18.912379763209575
31
-0.49999999999999994
0
LINE
5
1121
100
AcDbEntity
8
0
100
AcDbLine
10
20.392789720814417
20
21.087620236790414
30
-0.49999999999999994
11
20.486539720814417
21
21.25
31
-0.49999999999999994
0
LINE
5
1122
100
AcDbEntity
8
0
100
AcDbLine
10
21.071315124598854
20
17.412379763209579
30
-0.49999999999999994
11
20.977565124598854
21
17.249999999999996
31
-0.49999999999999994
0
LINE
5
1123
100
AcDbEntity
8
0
100
AcDbLine
10
20.392789720814417
20
21.912379763209579
30
-0.49999999999999994
11
20.205289720814417
21
21.912379763209579
31
-0.49999999999999994
0
LINE
5
1124
100
AcDbEntity
8
0
100
AcDbLine
10
20.392789720814417
20
20.587620236790414
30
-0.49999999999999994
11
20.486539720814417
21
20.749999999999996
31
-0.49999999999999994
0
LINE
5
1125
100
AcDbEntity
8
0
100
AcDbLine
10
20.111539720814417
20
16.249999999999996
30
-0.49999999999999994
11
20.205289720814417
21
16.087620236790414
31
-0.49999999999999994
0
LINE
5
1126
100
AcDbEntity
8
0
100
AcDbLine
10
21.258815124598854
20
21.587620236790411
30
-0.49999999999999994
11
21.352565124598854
21
21.749999999999996
31
-0.49999999999999994
0
LINE
5
1127
100
AcDbEntity
8
0
100
AcDbLine
10
20.977565124598854
20
19.249999999999996
30
-0.49999999999999994
11
21.071315124598854
21
19.087620236790418
31
-0.49999999999999994
0
LINE
5
1128
100
AcDbEntity
8
0
100
AcDbLine
10
20.053527018922196
20
21.499999999999996
30
-0.49999999999999994
11
19.959777018922196
21
21.662379763209575
31
-0.49999999999999994
0
LINE
5
1129
100
AcDbEntity
8
0
100
AcDbLine
10
20.825802422706637
20
17.837620236790414
30
-0.49999999999999994
11
20.919552422706637
21
17.999999999999996
31
-0.49999999999999994
0
LINE
5
1130
100
AcDbEntity
8
0
100
AcDbLine
10
19.339264317029976
20
19.412379763209579
30
-0.49999999999999994
11
19.245514317029976
21
19.249999999999996
31
-0.49999999999999994
0
LINE
5
1131
100
AcDbEntity
8
0
100
AcDbLine
10
22.124840528383295
20
17.587620236790414
30
-0.49999999999999994
11
22.218590528383295
21
17.75
31
-0.49999999999999994
0
LINE
5
1132
100
AcDbEntity
8
0
100
AcDbLine
10
19.093751615137759
20
19.837620236790414
30
-0.49999999999999994
11
19.187501615137759
21
19.999999999999996
31
-0.49999999999999994
0
LINE
5
1133
100
AcDbEntity
8
0
100
AcDbLine
10
20.205289720814417
20
16.087620236790414
30
-0.49999999999999994
11
20.392789720814417
21
16.087620236790414
31
-0.49999999999999994
0
LINE
5
1134
100
AcDbEntity
8
0
100
AcDbLine
10
20.053527018922196
20
16.499999999999993
30
-0.49999999999999994
11
19.959777018922196
21
16.662379763209579
31
-0.49999999999999994
0
LINE
5
1135
100
AcDbEntity
8
0
100
AcDbLine
10
20.638302422706634
20
17.837620236790414
30
-0.49999999999999994
11
20.825802422706637
21
17.837620236790414
31
-0.49999999999999994
0
LINE
5
1136
100
AcDbEntity
8
0
100
AcDbLine
10
21.937340528383295
20
16.412379763209575
30
-0.49999999999999994
11
21.843590528383295
21
16.249999999999996
31
-0.49999999999999994
0
LINE
5
1137
100
AcDbEntity
8
0
100
AcDbLine
10
19.678527018922196
20
20.999999999999996
30
-0.49999999999999994
11
19.772277018922196
21
20.837620236790418
31
-0.49999999999999994
0
LINE
5
1138
100
AcDbEntity
8
0
100
AcDbLine
10
21.843590528383295
20
16.249999999999996
30
-0.49999999999999994
11
21.937340528383295
21
16.087620236790414
31
-0.49999999999999994
0
LINE
5
1139
100
AcDbEntity
8
0
100
AcDbLine
10
19.620514317029976
20
18.249999999999996
30
-0.49999999999999994
11
19.526764317029976
21
18.412379763209579
31
-0.49999999999999994
0
LINE
5
1140
100
AcDbEntity
8
0
100
AcDbLine
10
21.937340528383295
20
16.087620236790414
30
-0.49999999999999994
11
22.124840528383295
21
16.087620236790414
31
-0.49999999999999994
0
LINE
5
1141
100
AcDbEntity
8
0
100
AcDbLine
10
20.638302422706634
20
21.162379763209579
30
-0.49999999999999994
11
20.544552422706637
21
20.999999999999996
31
-0.49999999999999994
0
LINE
5
1142
100
AcDbEntity
8
0
100
AcDbLine
10
20.825802422706637
20
18.337620236790418
30
-0.49999999999999994
11
20.919552422706637
21
18.499999999999996
31
-0.49999999999999994
0
LINE
5
1143
100
AcDbEntity
8
0
100
AcDbLine
10
20.053527018922196
20
17.499999999999993
30
-0.49999999999999994
11
19.959777018922196
21
17.662379763209579
31
-0.49999999999999994
0
LINE
5
1144
100
AcDbEntity
8
0
100
AcDbLine
10
19.678527018922196
20
19.5
30
-0.49999999999999994
11
19.772277018922196
21
19.337620236790414
31
-0.49999999999999994
0
LINE
5
1145
100
AcDbEntity
8
0
100
AcDbLine
10
21.071315124598854
20
21.087620236790414
30
-0.49999999999999994
11
21.258815124598854
21
21.087620236790414
31
-0.49999999999999994
0
LINE
5
1146
100
AcDbEntity
8
0
100
AcDbLine
10
20.053527018922196
20
18.999999999999996
30
-0.49999999999999994
11
19.959777018922196
21
19.162379763209579
31
-0.49999999999999994
0
LINE
5
1147
100
AcDbEntity
8
0
100
AcDbLine
10
21.071315124598854
20
19.412379763209579
30
-0.49999999999999994
11
20.977565124598854
21
19.249999999999996
31
-0.49999999999999994
0
LINE
5
1148
100
AcDbEntity
8
0
100
AcDbLine
10
21.071315124598854
20
20.087620236790418
30
-0.49999999999999994
11
21.258815124598854
21
20.087620236790418
31
-0.49999999999999994
0
LINE
5
1149
100
AcDbEntity
8
0
100
AcDbLine
10
19.772277018922196
20
20.662379763209575
30
-0.49999999999999994
11
19.678527018922196
21
20.5
31
-0.49999999999999994
0
LINE
5
1150
100
AcDbEntity
8
0
100
AcDbLine
10
20.638302422706634
20
21.837620236790411
30
-0.49999999999999994
11
20.825802422706637
21
21.837620236790411
31
-0.49999999999999994
0
LINE
5
1151
100
AcDbEntity
8
0
100
AcDbLine
10
21.071315124598854
20
21.587620236790411
30
-0.49999999999999994
11
21.258815124598854
21
21.587620236790411
31
-0.49999999999999994
0
LINE
5
1152
100
AcDbEntity
8
0
100
AcDbLine
10
21.352565124598854
20
17.75
30
-0.49999999999999994
11
21.258815124598854
21
17.912379763209575
31
-0.49999999999999994
0
LINE
5
1153
100
AcDbEntity
8
0
100
AcDbLine
10
20.392789720814417
20
17.912379763209575
30
-0.49999999999999994
11
20.205289720814417
21
17.912379763209575
31
-0.49999999999999994
0
LINE
5
1154
100
AcDbEntity
8
0
100
AcDbLine
10
19.959777018922196
20
22.162379763209575
30
-0.49999999999999994
11
19.772277018922196
21
22.162379763209575
31
-0.49999999999999994
0
LINE
5
1155
100
AcDbEntity
8
0
100
AcDbLine
10
20.205289720814417
20
20.087620236790418
30
-0.49999999999999994
11
20.392789720814417
21
20.087620236790418
31
-0.49999999999999994
0
LINE
5
1156
100
AcDbEntity
8
0
100
AcDbLine
10
21.071315124598854
20
18.412379763209579
30
-0.49999999999999994
11
20.977565124598854
21
18.249999999999996
31
-0.49999999999999994
0
LINE
5
1157
100
AcDbEntity
8
0
100
AcDbLine
10
19.772277018922196
20
19.337620236790414
30
-0.49999999999999994
11
19.959777018922196
21
19.337620236790414
31
-0.49999999999999994
0
LINE
5
1158
100
AcDbEntity
8
0
100
AcDbLine
10
18.906251615137759
20
19.662379763209575
30
-0.49999999999999994
11
18.812501615137759
21
19.5
31
-0.49999999999999994
0
LINE
5
1159
100
AcDbEntity
8
0
100
AcDbLine
10
20.486539720814417
20
21.25
30
-0.49999999999999994
11
20.392789720814417
21
21.412379763209575
31
-0.49999999999999994
0
LINE
5
1160
100
AcDbEntity
8
0
100
AcDbLine
10
20.111539720814417
20
16.749999999999993
30
-0.49999999999999994
11
20.205289720814417
21
16.587620236790418
31
-0.49999999999999994
0
LINE
5
1161
100
AcDbEntity
8
0
100
AcDbLine
10
20.205289720814417
20
20.912379763209575
30
-0.49999999999999994
11
20.111539720814417
21
20.749999999999996
31
-0.49999999999999994
0
LINE
5
1162
100
AcDbEntity
8
0
100
AcDbLine
10
18.906251615137759
20
16.337620236790418
30
-0.49999999999999994
11
19.093751615137759
21
16.337620236790418
31
-0.49999999999999994
0
LINE
5
1163
100
AcDbEntity
8
0
100
AcDbLine
10
19.959777018922196
20
20.337620236790414
30
-0.49999999999999994
11
20.053527018922196
21
20.5
31
-0.49999999999999994
0
LINE
5
1164
100
AcDbEntity
8
0
100
AcDbLine
10
18.660738913245538
20
21.087620236790414
30
-0.49999999999999994
11
18.754488913245538
21
21.25
31
-0.49999999999999994
0
LINE
5
1165
100
AcDbEntity
8
0
100
AcDbLine
10
19.339264317029976
20
16.587620236790418
30
-0.49999999999999994
11
19.526764317029976
21
16.587620236790418
31
-0.49999999999999994
0
LINE
5
1166
100
AcDbEntity
8
0
100
AcDbLine
10
21.071315124598854
20
21.912379763209579
30
-0.49999999999999994
11
20.977565124598854
21
21.749999999999996
31
-0.49999999999999994
0
LINE
5
1167
100
AcDbEntity
8
0
100
AcDbLine
10
20.392789720814417
20
16.587620236790418
30
-0.49999999999999994
11
20.486539720814417
21
16.749999999999993
31
-0.49999999999999994
0
LINE
5
1168
100
AcDbEntity
8
0
100
AcDbLine
10
19.959777018922196
20
18.162379763209575
30
-0.49999999999999994
11
19.772277018922196
21
18.162379763209575
31
-0.49999999999999994
0
LINE
5
1169
100
AcDbEntity
8
0
100
AcDbLine
10
22.124840528383295
20
18.412379763209579
30
-0.49999999999999994
11
21.937340528383295
21
18.412379763209579
31
-0.49999999999999994
0
LINE
5
1170
100
AcDbEntity
8
0
100
AcDbLine
10
21.937340528383295
20
18.912379763209575
30
-0.49999999999999994
11
21.843590528383295
21
18.75
31
-0.49999999999999994
0
LINE
5
1171
100
AcDbEntity
8
0
100
AcDbLine
10
18.906251615137759
20
16.662379763209579
30
-0.49999999999999994
11
18.812501615137759
21
16.499999999999993
31
-0.49999999999999994
0
LINE
5
1172
100
AcDbEntity
8
0
100
AcDbLine
10
21.504327826491064
20
17.162379763209575
30
-0.49999999999999994
11
21.410577826491064
21
16.999999999999996
31
-0.49999999999999994
0
LINE
5
1173
100
AcDbEntity
8
0
100
AcDbLine
10
19.339264317029976
20
20.087620236790418
30
-0.49999999999999994
11
19.526764317029976
21
20.087620236790418
31
-0.49999999999999994
0
LINE
5
1174
100
AcDbEntity
8
0
100
AcDbLine
10
21.937340528383295
20
18.587620236790414
30
-0.49999999999999994
11
22.124840528383295
21
18.587620236790414
31
-0.49999999999999994
0
LINE
5
1175
100
AcDbEntity
8
0
100
AcDbLine
10
22.124840528383295
20
18.587620236790414
30
-0.49999999999999994
11
22.218590528383295
21
18.75
31
-0.49999999999999994
0
LINE
5
1176
100
AcDbEntity
8
0
100
AcDbLine
10
19.772277018922196
20
17.662379763209579
30
-0.49999999999999994
11
19.678527018922196
21
17.499999999999993
31
-0.49999999999999994
0
LINE
5
1177
100
AcDbEntity
8
0
100
AcDbLine
10
22.218590528383295
20
18.75
30
-0.49999999999999994
11
22.124840528383295
21
18.912379763209575
31
-0.49999999999999994
0
LINE
5
1178
100
AcDbEntity
8
0
100
AcDbLine
10
19.620514317029976
20
17.75
30
-0.49999999999999994
11
19.526764317029976
21
17.912379763209575
31
-0.49999999999999994
0
LINE
5
1179
100
AcDbEntity
8
0
100
AcDbLine
10
22.124840528383295
20
18.912379763209575
30
-0.49999999999999994
11
21.937340528383295
21
18.912379763209575
31
-0.49999999999999994
0
LINE
5
1180
100
AcDbEntity
8
0
100
AcDbLine
10
19.339264317029976
20
20.587620236790414
30
-0.49999999999999994
11
19.526764317029976
21
20.587620236790414
31
-0.49999999999999994
0
LINE
5
1181
100
AcDbEntity
8
0
100
AcDbLine
10
21.071315124598854
20
18.912379763209575
30
-0.49999999999999994
11
20.977565124598854
21
18.75
31
-0.49999999999999994
0
LINE
5
1182
100
AcDbEntity
8
0
100
AcDbLine
10
19.526764317029976
20
19.087620236790418
30
-0.49999999999999994
11
19.620514317029976
21
19.249999999999996
31
-0.49999999999999994
0
LINE
5
1183
100
AcDbEntity
8
0
100
AcDbLine
10
20.638302422706634
20
20.662379763209575
30
-0.49999999999999994
11
20.544552422706637
21
20.5
31
-0.49999999999999994
0
LINE
5
1184
100
AcDbEntity
8
0
100
AcDbLine
10
19.187501615137759
20
19.999999999999996
30
-0.49999999999999994
11
19.093751615137759
21
20.162379763209579
31
-0.49999999999999994
0
LINE
5
1185
100
AcDbEntity
8
0
100
AcDbLine
10
20.825802422706637
20
17.662379763209579
30
-0.49999999999999994
11
20.638302422706634
21
17.662379763209579
31
-0.49999999999999994
0
LINE
5
1186
100
AcDbEntity
8
0
100
AcDbLine
10
19.093751615137759
20
16.337620236790418
30
-0.49999999999999994
11
19.187501615137759
21
16.499999999999993
31
-0.49999999999999994
0
LINE
5
1187
100
AcDbEntity
8
0
100
AcDbLine
10
20.205289720814417
20
17.087620236790414
30
-0.49999999999999994
11
20.392789720814417
21
17.087620236790414
31
-0.49999999999999994
0
LINE
5
1188
100
AcDbEntity
8
0
100
AcDbLine
10
19.526764317029976
20
20.912379763209575
30
-0.49999999999999994
11
19.339264317029976
21
20.912379763209575
31
-0.49999999999999994
0
LINE
5
1189
100
AcDbEntity
8
0
100
AcDbLine
10
20.825802422706637
20
19.662379763209575
30
-0.49999999999999994
11
20.638302422706634
21
19.662379763209575
31
-0.49999999999999994
0
LINE
5
1190
100
AcDbEntity
8
0
100
AcDbLine
10
19.339264317029976
20
16.412379763209575
30
-0.49999999999999994
11
19.245514317029976
21
16.249999999999996
31
-0.49999999999999994
0
LINE
5
1191
100
AcDbEntity
8
0
100
AcDbLine
10
21.410577826491064
20
20.5
30
-0.49999999999999994
11
21.504327826491064
21
20.337620236790414
31
-0.49999999999999994
0
LINE
5
1192
100
AcDbEntity
8
0
100
AcDbLine
10
19.093751615137759
20
19.337620236790414
30
-0.49999999999999994
11
19.187501615137759
21
19.5
31
-0.49999999999999994
0
LINE
5
1193
100
AcDbEntity
8
0
100
AcDbLine
10
21.504327826491064
20
20.337620236790414
30
-0.49999999999999994
11
21.691827826491068
21
20.337620236790414
31
-0.49999999999999994
0
LINE
5
1194
100
AcDbEntity
8
0
100
AcDbLine
10
19.772277018922196
20
16.837620236790414
30
-0.49999999999999994
11
19.959777018922196
21
16.837620236790414
31
-0.49999999999999994
0
LINE
5
1195
100
AcDbEntity
8
0
100
AcDbLine
10
21.071315124598854
20
16.912379763209575
30
-0.49999999999999994
11
20.977565124598854
21
16.749999999999993
31
-0.49999999999999994
0
LINE
5
1196
100
AcDbEntity
8
0
100
AcDbLine
10
18.906251615137759
20
21.337620236790414
30
-0.49999999999999994
11
19.093751615137759
21
21.337620236790414
31
-0.49999999999999994
0
LINE
5
1197
100
AcDbEntity
8
0
100
AcDbLine
10
20.977565124598854
20
17.75
30
-0.49999999999999994
11
21.071315124598854
21
17.587620236790414
31
-0.49999999999999994
0
LINE
5
1198
100
AcDbEntity
8
0
100
AcDbLine
10
19.339264317029976
20
20.412379763209575
30
-0.49999999999999994
11
19.245514317029976
21
20.249999999999996
31
-0.49999999999999994
0
LINE
5
1199
100
AcDbEntity
8
0
100
AcDbLine
10
20.392789720814417
20
18.587620236790414
30
-0.49999999999999994
11
20.486539720814417
21
18.75
31
-0.49999999999999994
0
LINE
5
1200
100
AcDbEntity
8
0
100
AcDbLine
10
19.093751615137759
20
18.837620236790414
30
-0.49999999999999994
11
19.187501615137759
21
18.999999999999996
31
-0.49999999999999994
0
LINE
5
1201
100
AcDbEntity
8
0
100
AcDbLine
10
20.825802422706637
20
19.837620236790414
30
-0.49999999999999994
11
20.919552422706637
21
19.999999999999996
31
-0.49999999999999994
0
LINE
5
1202
100
AcDbEntity
8
0
100
AcDbLine
10
20.825802422706637
20
15.837620236790416
30
-0.49999999999999994
11
20.919552422706637
21
15.999999999999993
31
-0.49999999999999994
0
LINE
5
1203
100
AcDbEntity
8
0
100
AcDbLine
10
19.959777018922196
20
19.837620236790414
30
-0.49999999999999994
11
20.053527018922196
21
19.999999999999996
31
-0.49999999999999994
0
LINE
5
1204
100
AcDbEntity
8
0
100
AcDbLine
10
20.825802422706637
20
18.662379763209575
30
-0.49999999999999994
11
20.638302422706634
21
18.662379763209575
31
-0.49999999999999994
0
LINE
5
1205
100
AcDbEntity
8
0
100
AcDbLine
10
19.093751615137759
20
20.337620236790414
30
-0.49999999999999994
11
19.187501615137759
21
20.5
31
-0.49999999999999994
0
LINE
5
1206
100
AcDbEntity
8
0
100
AcDbLine
10
20.392789720814417
20
21.587620236790411
30
-0.49999999999999994
11
20.486539720814417
21
21.749999999999996
31
-0.49999999999999994
0
LINE
5
1207
100
AcDbEntity
8
0
100
AcDbLine
10
21.258815124598854
20
21.087620236790414
30
-0.49999999999999994
11
21.352565124598854
21
21.25
31
-0.49999999999999994
0
LINE
5
1208
100
AcDbEntity
8
0
100
AcDbLine
10
20.392789720814417
20
17.412379763209579
30
-0.49999999999999994
11
20.205289720814417
21
17.412379763209579
31
-0.49999999999999994
0
LINE
5
1209
100
AcDbEntity
8
0
100
AcDbLine
10
20.111539720814417
20
19.749999999999996
30
-0.49999999999999994
11
20.205289720814417
21
19.587620236790414
31
-0.49999999999999994
0
LINE
5
1210
100
AcDbEntity
8
0
100
AcDbLine
10
20.392789720814417
20
18.412379763209579
30
-0.49999999999999994
11
20.205289720814417
21
18.412379763209579
31
-0.49999999999999994
0
LINE
5
1211
100
AcDbEntity
8
0
100
AcDbLine
10
20.919552422706637
20
19.999999999999996
30
-0.49999999999999994
11
20.825802422706637
21
20.162379763209579
31
-0.49999999999999994
0
LINE
5
1212
100
AcDbEntity
8
0
100
AcDbLine
10
20.053527018922196
20
19.5
30
-0.49999999999999994
11
19.959777018922196
21
19.662379763209575
31
-0.49999999999999994
0
LINE
5
1213
100
AcDbEntity
8
0
100
AcDbLine
10
21.258815124598854
20
18.412379763209579
30
-0.49999999999999994
11
21.071315124598854
21
18.412379763209579
31
-0.49999999999999994
0
LINE
5
1214
100
AcDbEntity
8
0
100
AcDbLine
10
21.352565124598854
20
21.25
30
-0.49999999999999994
11
21.258815124598854
21
21.412379763209575
31
-0.49999999999999994
0
LINE
5
1215
100
AcDbEntity
8
0
100
AcDbLine
10
18.660738913245538
20
21.412379763209575
30
-0.49999999999999994
11
18.473238913245538
21
21.412379763209575
31
-0.49999999999999994
0
LINE
5
1216
100
AcDbEntity
8
0
100
AcDbLine
10
21.258815124598854
20
18.087620236790414
30
-0.49999999999999994
11
21.352565124598854
21
18.249999999999996
31
-0.49999999999999994
0
LINE
5
1217
100
AcDbEntity
8
0
100
AcDbLine
10
20.205289720814417
20
20.412379763209575
30
-0.49999999999999994
11
20.111539720814417
21
20.249999999999996
31
-0.49999999999999994
0
LINE
5
1218
100
AcDbEntity
8
0
100
AcDbLine
10
21.258815124598854
20
17.587620236790414
30
-0.49999999999999994
11
21.352565124598854
21
17.75
31
-0.49999999999999994
0
LINE
5
1219
100
AcDbEntity
8
0
100
AcDbLine
10
20.977565124598854
20
18.249999999999996
30
-0.49999999999999994
11
21.071315124598854
21
18.087620236790414
31
-0.49999999999999994
0
LINE
5
1220
100
AcDbEntity
8
0
100
AcDbLine
10
20.053527018922196
20
21.999999999999996
30
-0.49999999999999994
11
19.959777018922196
21
22.162379763209575
31
-0.49999999999999994
0
LINE
5
1221
100
AcDbEntity
8
0
100
AcDbLine
10
19.959777018922196
20
21.662379763209575
30
-0.49999999999999994
11
19.772277018922196
21
21.662379763209575
31
-0.49999999999999994
0
LINE
5
1222
100
AcDbEntity
8
0
100
AcDbLine
10
20.977565124598854
20
19.749999999999996
30
-0.49999999999999994
11
21.071315124598854
21
19.587620236790414
31
-0.49999999999999994
0
LINE
5
1223
100
AcDbEntity
8
0
100
AcDbLine
10
15.875162701892215
20
18.912379763209575
30
-0.49999999999999994
11
15.781412701892217
21
18.75
31
-0.49999999999999994
0
LINE
5
1224
100
AcDbEntity
8
0
100
AcDbLine
10
16.928688105676656
20
17.087620236790414
30
-0.49999999999999994
11
17.022438105676656
21
17.249999999999996
31
-0.49999999999999994
0
LINE
5
1225
100
AcDbEntity
8
0
100
AcDbLine
10
16.062662701892215
20
18.587620236790414
30
-0.49999999999999994
11
16.156412701892215
21
18.75
31
-0.49999999999999994
0
LINE
5
1226
100
AcDbEntity
8
0
100
AcDbLine
10
15.875162701892215
20
18.587620236790414
30
-0.49999999999999994
11
16.062662701892215
21
18.587620236790414
31
-0.49999999999999994
0
LINE
5
1227
100
AcDbEntity
8
0
100
AcDbLine
10
15.781412701892217
20
18.75
30
-0.49999999999999994
11
15.875162701892215
21
18.587620236790414
31
-0.49999999999999994
0
LINE
5
1228
100
AcDbEntity
8
0
100
AcDbLine
10
16.741188105676656
20
17.087620236790414
30
-0.49999999999999994
11
16.928688105676656
21
17.087620236790414
31
-0.49999999999999994
0
LINE
5
1229
100
AcDbEntity
8
0
100
AcDbLine
10
15.875162701892215
20
18.087620236790414
30
-0.49999999999999994
11
16.062662701892215
21
18.087620236790414
31
-0.49999999999999994
0
LINE
5
1230
100
AcDbEntity
8
0
100
AcDbLine
10
22.999999999999996
20
15.093749999999993
30
-0.49999999999999994
11
21.999999999999996
21
15.093749999999993
31
-0.49999999999999994
0
LINE
5
1231
100
AcDbEntity
8
0
100
AcDbLine
10
21.500279997360348
20
15.093749999999993
30
-0.49999999999999994
11
21.406529997360348
21
14.999999999999993
31
-0.49999999999999994
0
LINE
5
1232
100
AcDbEntity
8
0
100
AcDbLine
10
21.406529997360348
20
14.999999999999993
30
-0.49999999999999994
11
19.906529997360348
21
14.999999999999993
31
-0.49999999999999994
0
LINE
5
1233
100
AcDbEntity
8
0
100
AcDbLine
10
19.906529997360348
20
14.999999999999993
30
-0.49999999999999994
11
19.812779997360348
21
15.093749999999993
31
-0.49999999999999994
0
LINE
5
1234
100
AcDbEntity
8
0
100
AcDbLine
10
19.906529997360348
20
14.999999999999993
30
-0.49999999999999994
11
20.039112518832827
21
14.999999999999993
31
-0.49999999999999994
0
LINE
5
1235
100
AcDbEntity
8
0
100
AcDbLine
10
22.999999999999996
20
15.093749999999993
30
-0.49999999999999994
11
18.999999999999996
21
15.093749999999993
31
-0.49999999999999994
0
LINE
5
1236
100
AcDbEntity
8
0
100
AcDbLine
10
16.594189997360349
20
14.999999999999993
30
-0.49999999999999994
11
16.500439997360349
21
15.093749999999993
31
-0.49999999999999994
0
LINE
5
1237
100
AcDbEntity
8
0
100
AcDbLine
10
18.094189997360349
20
14.999999999999993
30
-0.49999999999999994
11
16.594189997360349
21
14.999999999999993
31
-0.49999999999999994
0
LINE
5
1238
100
AcDbEntity
8
0
100
AcDbLine
10
18.187939997360349
20
15.093749999999993
30
-0.49999999999999994
11
18.094189997360349
21
14.999999999999993
31
-0.49999999999999994
0
ENDSEC
0
SECTION
2
OBJECTS
0
DICTIONARY
5
C
100
AcDbDictionary
3
ACAD_GROUP
350
D
3
ACAD_MLINESTYLE
350
17
0
DICTIONARY
5
D
100
AcDbDictionary
0
DICTIONARY
5
1A
330
C
100
AcDbDictionary
0
DICTIONARY
5
17
100
AcDbDictionary
0
ENDSEC
0
EOF
